Marilyn Manson:

: Marilyn Manson - "Man That You Fear"










[ne]FORMAT



MIDI







Man That You Fear

Marilyn Manson

: Chris Arnold, Email: webmaster@cagtp.com




Main Riff: (it has diff. variations)
E---|----|---|-----|
B-8-|-11-|-8-|-10--|
G-7-|-10-|-7-|--9--|
D-5-|--8-|-5-|--7--|
A-5-|--8-|-5-|--7--|
E---|----|---|-----|

Use slide: (go up to 12th fret)
E-----|
B-----|
G-----|
D-0/--|
A-0/--|
E-0/--|

Chorus:
E----------------|
B----------------|
G-9---7---5---5--|
D-9---7---5---5--|
A-7---5---3---3--|
E-7---5---3---3--|

Bridge Riff:
E----------------------------------------------------|
B----------------------------------------------------|
G----------------------------------------------------|
D----------------------------------------------------|
A-0-0-0-0-0-0-0-0-0-2-2-2-2-2-2-3-3-3-3-3-3-4-4-4-4--|
E----------------------------------------------------|
                     ^
In background of that|
E-----------------------------------------|
B----------10-10-10-10-----------8-8-8-8--|
G-2-2-2-2---9--9--9--9--4-4-4-4--7-7-7-7--|
D-2-2-2-2---7--7--7--7--4-4-4-4--5-5-5-5--|
A-0-0-0-0---7--7--7--7--2-2-2-2--5-5-5-5--|
E-0-0-0-0---------------2-2-2-2-----------|

Pre-Chorus slide
for last chorus.(Same deal w/12th fret and slide.)
E-----|
B-----|
G-----|
D-2/--|
A-2/--|
E-0/--|