Marilyn Manson:

: Marilyn Manson - "Long Hard Road Out Of Hell"










[ne]FORMAT



MIDI







Long Hard Road Out Of Hell

( ""SPAWN" Soundtrack")

Marilyn Manson

: Chris Arnold, Email: webmaster@cagtp.com




Intro Riff:
E--------------|
B--------------|
G-0-3-0-3---0--|
D---------3----|
A--------------|
E--------------|

You can keep beat through the verses with this, it's really the bass:
E------------------------------------------------------------------|
B------------------------------------------------------------------|
G------------------------------------------------------------------|
D------------------------------------------------------------------|
A------------------------------------------------------------------|
E-0-0-0-0-0-0-0-0-3-3-3-3-3-3-3-3-1-1-1-1-1-1-1-1-0-0-0-0-0-0-0-0--|

Chorus:
E---------------------------------------------------------------------|
B---------------------------------------------------------------------|
G---------------------------------------------------------------------|
D------------------5-5-5-5-5-5-5-5--3-3-3-3-3-3-3-3-------------------|
A-0-0-0-0-0-0-0-0--5-5-5-5-5-5-5-5--3-3-3-3-3-3-3-3--0-0-0-0-0-0-0-0--|
E-0-0-0-0-0-0-0-0--3-3-3-3-3-3-3-3--1-1-1-1-1-1-1-1--0-0-0-0-0-0-0-0--|

Outro - I think it's close:
E------------------------------|
B------------------------------|
G------------------------------|
D------3-----x-x-x-x--5-5-5-5--|
A-0-0--3--0--x-x-x-x--5-5-5-5--|
E-0-0--1--0--x-x-x-x--3-0-3-0--|

That's it.