Marilyn Manson:

: Marilyn Manson - "I Don't Like the Drugs but the Drugs Like Me"










[ne]FORMAT



MIDI







I Don't Like the Drugs but the Drugs Like Me

Marilyn Manson

: Kristin Campbell, Email: KCSoup66@yahoo.com




Intro:
G-----------------|
D-----------------|
A-----------------|
E-2-2-2-2-5-5-5-5-|

Verses:
G-----------------------------|
D-----------------------------|
A-----------------------------|
E-2-2-2-2-2-2-2-2-2-2-2-2-5/7-|

Pre-Chorus:
G--------------------------|
D--------------------------|
A--------------------------|
E-5-5-7-5-5-7-5-5-7-5-5-2\-|

Chorus:
G-----------------------------------------------------------------|
D-----------------------------------------------------------------|
A-----------------------------------------------------------------|
E-2-2-2-2-2-2-5/7-2-2-2-2-2-2-7\5-2-2-2-2-2-2-5/7-2-2-2-2-5-5-5-5-|