Marilyn Manson: другие аккорды и тексты

Табулатура: Marilyn Manson - "Coma White"

» Главная
» Аккорды
» Школа игры
» Софт для гитары
» Схемы примочек
» Магазин
» Продам
» Куплю
» Фотографии
» [ne]FORMAT
» Ссылки
» Форум
» Знакомства
» MIDI
» Контакты


»



Coma White

(альбом "Mechanical Animals")

Marilyn Manson

год: 1995-96
подбор: Homelleon ( IhomelleonI@yandex.ru )

куплет
1-ая мелодия:
-----------------------------------------     
------1------1------1------1---2--2---     x3 раза
---3------3------3------3------3--3---          

-------------------------------------------------------------
------6-----6-----6------6------4------4------4------4---
---8------8------8------8-----6------6------5------5-----


припев
Бас:
---7--                      ---9---                         ---6---  
---7--    x8 раз            ---9---   x8 раз                ---6---  x8 раз
---5--                      ---7---                         ---4---


---4---                      ---2---
---4---  x4 раза             ---2---  x4 раза
---2---                      ---1---


Проигрыш
Бас:
--------                      ----------5-----------------
---7---                       ---5---5--5--6----6---6---6--
---7---    x4 раза            ---5---5--3--6----6---6---6--    x2 раза  
---5---                       ---3---3-----4----4---4---4--  
                                              
-----9-     -----   
--9--9-     -10--       
--9--7-     -10-- x8 раз
--7----     -8---