Yngwie Malmsteen:

: Yngwie Malmsteen - "Black Star (Intro)"










[ne]FORMAT



MIDI







Black Star (Intro)

Yngwie Malmsteen


Acoustic guitar
Timing 3/4

                ^^^^^^
E-----7-----|----------------|-----------------|--0-------2--3--|
B----7------|--8-------7--5--|--4tr5-----2--4--|----------------|
G---8-------|----------------|-----------------|----------------|
D-----------|----------------|--4--------------|----------------|
A--9--------|--7-------------|-----------0-----|----------------|
E-----------|----------------|-----------------|--3-------------|

                               ^^
E-----4-----|-----5--------------|-----6---------|-----7---------|
B----5------|----5---------------|----7----------|----8----7--5--|
G---4-------|---7-----5h7p5\4-5--|---6-----------|---9-----8--6--|
D-----------|--------------------|---------------|---------------|
A-----------|--0-----------------|---------------|---------------|
E--4--------|--------------------|--6----6--7--9-|--7------------|


      Harm..............................................|
E-------- 7-|-----12--------|--------------|-------12-----|-
B--7--------|-----------12--|-------7------|--12----------|-
G--8--------|---------------|--5--------7--|--------------|-
D-----------|---------------|--------------|--------------|-
A-----------|---------------|--------------|--------------|-
E------7----|-12------------|--------------|--------------|-


vibrato:   ^^^^^
pull-off:  p
hammer:    h
slide:     \
trill:     tr
Harmonics: Harm