Linkin Park:

: Linkin Park - "The Morning After"










[ne]FORMAT



MIDI







The Morning After

Linkin Park



Tuning: Dropped D one half step down
C# G# C# F# A# D#

   [Intro] Accoustic  
-|--------------------------------------------------------------------------|-
-|--------------------------------------------------------------------------|-
-|--------------------------------------------------------------------------|-
-|-4--x-4-4--x-4-4--x-2-x-5-5-2---------------------------------------------|-
-|-4--x-4-4--x-4-4--x-2-x-5-5-2---------------------------------------------|-
-|-4--x-4-4--x-4-4--x-2-x-5-5-2---------------------------------------------|-
   Play 8 times.

   [Chorus]
-|--------------------------------------------------------------------------|-
-|--------------------------------------------------------------------------|-
-|-4--x-4-4-2---------------------------------------------------------------|-
-|-4--x-4-4-2-5--x-5--5-5-2-4--x-4-4--x-4-4--x-2-x-5-5-2--------------------|-
-|-2--x-2-2-0-5--x-5--5-5-2-4--x-4-4--x-4-4--x-2-x-5-5-2--------------------|-
-|------------5--x-5--5-5-2-4--x-4-4--x-4-4--x-2-x-5-5-2--------------------|-
   Play twice.

   [Verse] 
-|--------------------------------------------------------------------------|-
-|--------------------------------------------------------------------------|-
-|--------------------------------------------------------------------------|-
-|-4--x-4-4--x-4-4--x-2-x-5-5-2---------------------------------------------|-
-|-4--x-4-4--x-4-4--x-2-x-5-5-2---------------------------------------------|-
-|-4--x-4-4--x-4-4--x-2-x-5-5-2---------------------------------------------|-
   Play 4 times.

   [Chorus]
-|--------------------------------------------------------------------------|-
-|--------------------------------------------------------------------------|-
-|-4--x-4-4-2---------------------------------------------------------------|-
-|-4--x-4-4-2-5--x-5--5-5-2-4--x-4-4--x-4-4--x-2-x-5-5-2--------------------|-
-|-2--x-2-2-0-5--x-5--5-5-2-4--x-4-4--x-4-4--x-2-x-5-5-2--------------------|-
-|------------5--x-5--5-5-2-4--x-4-4--x-4-4--x-2-x-5-5-2--------------------|-
   Play twice.

   [Chorus]
-|--------------------------------------------------------------------------|-
-|--------------------------------------------------------------------------|-
-|-4--x-4-4-2---------------7--x-7--7-7-------------------------------------|-
-|-4--x-4-4-2-5--x-5--5-5-0-7--x-7--7-7-0-7--x-7--7-7-0---------------------|-
-|-2--x-2-2-0-5--x-5--5-5-0-5--x-5--5-5-0-7--x-7--7-7-0---------------------|-
-|------------5--x-5--5-5-0-------------0-7--x-7--7-7-0---------------------|-
   Play twice.


   [Chorus]
-|--------------------------------------------------------------------------|-
-|--------------------------------------------------------------------------|-
-|-4--x-4-4-2---------------7--x-7--7-7-------------------------------------|-
-|-4--x-4-4-2-5--x-5--5-5-0-7--x-7--7-7-0-7777777777777775------------------|-
-|-2--x-2-2-0-5--x-5--5-5-0-5--x-5--5-5-0-7777777777777775------------------|-
-|------------5--x-5--5-5-0-------------0-7777777777777775------------------|-
   Play once.

   [Verse] 
-|--------------------------------------------------------------------------|-
-|--------------------------------------------------------------------------|-
-|--------------------------------------------------------------------------|-
-|-4--x-4-4--x-4-4--x-2-x-5-5-2---------------------------------------------|-
-|-4--x-4-4--x-4-4--x-2-x-5-5-2---------------------------------------------|-
-|-4--x-4-4--x-4-4--x-2-x-5-5-2---------------------------------------------|-
   Play 8 times.

   [Chorus]
-|--------------------------------------------------------------------------|-
-|--------------------------------------------------------------------------|-
-|-4--x-4-4-2---------------------------------------------------------------|-
-|-4--x-4-4-2-5--x-5--5-5-2-4--x-4-4--x-4-4--x-2-x-5-5-2--------------------|-
-|-2--x-2-2-0-5--x-5--5-5-2-4--x-4-4--x-4-4--x-2-x-5-5-2--------------------|-
-|------------5--x-5--5-5-2-4--x-4-4--x-4-4--x-2-x-5-5-2--------------------|-
   Play twice.

   [Chorus]
-|--------------------------------------------------------------------------|-
-|--------------------------------------------------------------------------|-
-|-4--x-4-4-2---------------7--x-7--7-7-------------------------------------|-
-|-4--x-4-4-2-5--x-5--5-5-0-7--x-7--7-7-0-7--x-7--7-7-0---------------------|-
-|-2--x-2-2-0-5--x-5--5-5-0-5--x-5--5-5-0-7--x-7--7-7-0---------------------|-
-|------------5--x-5--5-5-0-------------0-7--x-7--7-7-0---------------------|-
   Play twice.

   [Chorus]
-|--------------------------------------------------------------------------|-
-|--------------------------------------------------------------------------|-
-|-4--x-4-4-2---------------7--x-7--7-7-------------------------------------|-
-|-4--x-4-4-2-5--x-5--5-5-0-7--x-7--7-7-0-7777777777777775-4----------------|-
-|-2--x-2-2-0-5--x-5--5-5-0-5--x-5--5-5-0-7777777777777775-4----------------|-
-|------------5--x-5--5-5-0-------------0-7777777777777775-4----------------|-
   Play once.