Linkin Park:

: Linkin Park - "Cure For The Itch"










[ne]FORMAT



MIDI







Cure For The Itch

Linkin Park



-----------------------------------------------------
-----------------------------------------------------
-----------------------------------------------------
-----------------------------------------------------
9-12-7-5-9-12-7-5-9-12-7-5---------------------------
7-10-5-3-7-10-5-3-7-10-5-3--------------------------- 


 :
|-----------------------------
|-----------------------------
|-----------------------------
|---8-8-8-9-8-6---------------
|-6-------------9-9-8-8-8-9-8-
|-----------------------------

A Cure For The Itch

(Unnamed announcer): Folks, we have a very special guest for you tonight.
I'd like to introduce...
Mr. Hahn!
Let's hear it for the great Mr. Hahn!
And now a lesson in rhythm management.
Let's begin...
Alright now, wasn't that fun?
Let's try something else.