Korn: другие аккорды и тексты

Табулатура для бас-гитары: Korn - "Swallow"

» Главная
» Аккорды
» Школа игры
» Софт для гитары
» Схемы примочек
» Магазин
» Продам
» Куплю
» Фотографии
» [ne]FORMAT
» Ссылки
» Форум
» Знакомства
» MIDI
» Контакты


»



Swallow

Korn


                        *  see text below                                  
G ||-----------------||------------------------------3h4h5-------||----------
D ||-----------------||------------------------6-4---------4h5h6-||----------
A ||-----------------||----------------------------6-------------||----------
D ||-----------------||-5--------4-------------------------------||----------
A ||-2---------2---2-||------------------3-----------------------||----------
                                                                           

                                                                           
------------------||-------------------------------||----------------------
------------------||-------------------------------||----------------------
------------------||-------------------------------||----------------------
------------------||-------------------------------||----------------------
3-----------3---3-||-0-0---0-0-0-------0-0---0-0-0-||----------------------
                                                                           

**  see text below                                                         
-------------------||------------------------------------------------------
-------------------||------------------------------------------------------
-------------------||------------------------------------------------------
-------------------||------------------------------------------------------
-2-----------2---2-||------------------------------------------------------
                                                                           

*  This part has many variations that aren't included.
   You can put any fill you like in here though.

** This part is the end of the song which also has many
   variations that aren't included.