Korn: другие аккорды и тексты

Табулатура для бас-гитары: Korn - "Seed"

» Главная
» Аккорды
» Школа игры
» Софт для гитары
» Схемы примочек
» Магазин
» Продам
» Куплю
» Фотографии
» [ne]FORMAT
» Ссылки
» Форум
» Знакомства
» MIDI
» Контакты


»



Seed

(альбом "Follow The Leader")

Korn

подбор: Scott Huber (LowEnd9754@aol.com)

         Intro (Addlib occasionaly)                                     
F---||---------------12--------------------10--------------12-----------
C---||-----------10-----------------10-----------------10---------10----
G---||*--9h10p9----------0--9h10p9------9------9h10p9----------0--------
D---||*-----------------------------------------------------------------
A---||------------------------------------------------------------------
                                                                        

                      5x     Pre-Verse (Slapped)                        
F----------------10---||------------------------------||----------------
C---9-----------------||------------------------------||----------------
G------10--9---------*||------------------------------||*---------------
D-------------9------*||------------------------------||*---------------
A---------------------||-----0--4h5--5--0--0--1h2--2--||---0--0--4------
                                                                        

                          7x                                            
F-------------------------||-----||-------------------------------------
C-------------------------||-----||-------------------------------------
G------------------------*||-----||*------------------------------------
D------------------------*||-----||*------------------------------------
A---h5--5--0--0--1h2--2---||-----||-------------------------------------
                                                                        

    play 7 on the weird noise,always hold 0 4x                          
F-------------------------------------------||--------------------------
C-------------------------------------------||--------------------------
G------------------------------------------*||--------------------------
D------------------------------------7-----*||--------------------------
A---0--(0)--(0)--(0)--(0)--(0)--(0)---------||--------------------------
                                                                        

    addlib every 6th tim21x                                             
F-----------------------||-----||---------------------------------------
C-----------------------||-----||---------------------------------------
G----------------------*||-----||*--------------------------------------
D--------------5h6-----*||-----||*--------------------------------------
A---0--0--5h6-----------||-----||---0--(0)--(0)--(0)--(0)--(0)--(0)-----
                                                                        

        2x       addlib 6th time  9x  Chorus (Slapped)                  
F-------||--||--------------------||---------------------------||-------
C-------||--||--------------------||---------------------------||-------
G------*||--||*------------------*||---------------------------||*------
D---7--*||--||*-------------5h6--*||---------------------------||*------
A-------||--||---0--0--5h6--------||--0--4h5--5--0--0--1h2--2--||-------
                                                                        

                                 7x                                     
F--------------------------------||--||---------------------------------
C--------------------------------||--||---------------------------------
G-------------------------------*||--||*--------------------------------
D-------------------------------*||--||*--------------------------------
A---0--0--4h5--5--0--0--1h2--2---||--||---------------------------------
                                                                        

    same riff as intro (use addlibs)           5x                       
F----------------------------------------------||--||-------------------
C----------------------------------------------||--||-------------------
G---------------------------------------------*||--||*------------------
D---------------------------------------------*||--||*------------------
A----------------------------------------------||--||---0--3--4--5------
                                                                        

     8x       repeat intro (Still addlib)          5x                   
F----||--||----------------------------------------||--||---------------
C----||--||----------------------------------------||--||---------------
G---*||--||*--------------------------------------*||--||*--------------
D---*||--||*--------------------------------------*||--||*--------------
A----||--||----------------------------------------||--||---0--3--4-----
                                                                        

        8x       (slap) Chorus             16x                          
F-------||--||-----------------------------||--||-----------------------
C-------||--||-----------------------------||--||-----------------------
G------*||--||*---------------------------*||--||*----------------------
D------*||--||*---------------------------*||--||*----------------------
A---5---||--||---0--4h5--5--0--0--1h2--2---||--||-----------------------
                                                                        

    fade out after 6 times 6x                                           
F--------------------------||-------------------------------------------
C--------------------------||-------------------------------------------
G-------------------------*||-------------------------------------------
D--------------5h6--------*||-------------------------------------------
A---0--0--5h6--------------||-------------------------------------------
                                                                        

Once again, if it's wrong e-mail me and i'll fix it. For the 
addlibs, fieldy is nuts at that shit, so just play something along 
the lines as the main riff, it'll sound fine.For the repeats, if  i 
put like 4, that means play that riff 4 times.

                                                                        
F-----------------------------------------------------------------------
C-----------------------------------------------------------------------
G-----------------------------------------------------------------------
D-----------------------------------------------------------------------
A-----------------------------------------------------------------------
                                                                        

I don't know if this is right, cuz this is one hard ass song, just 
be grateful i tabbed it for you! I know fieldy uses a 
flanger,reverb,chorus, effect in the intro/bridge riff. Have fun!



========================================================================
==                       TABLATURE EXPLANATION                        ==
========================================================================

----------                ----------                ----t---
----5h8--- Hammeron       ----(8)--- Ghost          ----6--- Tap
----------                ---------- Note           --------
----5p8--- Pulloff        ----------                --------

----------                ----------                -----p--
----5/8--- Slide Up       -----x---- Dead           -----7-- Pop
----------                ---------- Note           --s-----
----5\8--- Slide Down     ----------                --5----- Slap 

----------                ||------|| Repeat         --------
----5~~~-- Vibrato        ||*----*||                ---5^--- Bend
----------                ||*----*||                --------
----------                ||------||                --------

----------                ----------                --------
-4:------- Time           ----------                --------
-4:------- Signature      ----------                --------
----------                ----------                --------

Rhythm:
  w = whole note            W = dotted whole
  h = half note             H = dotted half
  q = quarter note          Q = dotted quarter
  e = eighth note           E = dotted eighth
  s = sixteenth note        S = dotted sixteenth
  t = 32nd note             T = dotted 32nd
  x = 64th note             X = dotted 64th
  ^ = triplet