Korn: другие аккорды и тексты

Табулатура для бас-гитары: Korn - "Reclaim My Place"

» Главная
» Аккорды
» Школа игры
» Софт для гитары
» Схемы примочек
» Магазин
» Продам
» Куплю
» Фотографии
» [ne]FORMAT
» Ссылки
» Форум
» Знакомства
» MIDI
» Контакты


»



Reclaim My Place

(альбом "Follow The Leader")

Korn

год: Wess (Low Man 02524@aol.com)

Dont sue me!! This is Korn's song. you all know that.

Tuning: as always its ADGCF (one step down)
Moderate rock = 112
Guitar intro..... What the Fuck!!

bass figure 1                                                                                                   
F-------------------------------------------------------------------------------------------------------------
C-------------------------------------------------------------------------------------------------------------
G----2-----------2------2-------2--------2------2--------2------------2-----2------2------2------2-----
D-------------------------------------------------------------------------------------------------------------
A-------0----0------0------0---------0------0------0-----------0--0-----0-----0--------0-----0-----0---

(bass fill 1.................)
F------------------------
C------------------------
G--2------2----2--------
D-------------------------
A----0-0----0----0-2/--

verse: (*strum with finger nails)
F---0*------------------------------------------------------------
C---0*------------------------------------------------------------
G---3*------------------------------------------------------------
D------------------------------------------------------------------
A--------------------0---2/3\2---0-------2--------0------------

Reclaim my place...........................
F---------------------------------------------------------)-----------------------------------------------------
C---------------------------------------------------------)-----------------------------------------------------
G----2-----------2------2-------2--------2------2------)----------3----3---------3----------3------3------
D---------------------------------------------------------)-----------------------------------------------------
A-------0----0------0------0---------0------0------0--)---1---1----1-----1---------1---1-----1-----------

Interlude: (*hammer notes with left hand and swell volume nob)
F--------------------------------------------------------------------------------------------------------------
C-------------------------*14--*14-*14------------------------------------------------15--15------------
G-------------------------------------------*13-*13------------------------14-14-14----------------------
D----*12-*12-*12-*12------------------------------12-12-12-12---------------------------------------
A--------------------------------------------------------------------------------------------------------------

bass fig. 2:
F--------------------------------------------------------------------------------------------------------------
C--------------------------------------------------------------------------------------------------------------
D--------------------------------------------------------------------------------------------------------------
G-----------------------7----------------------------------------------------------8--------------------------
A---5---------------------------------------7-------------------8--------------------------------------6----

bass fig. 3:
F---------------------------------------------------------------------------------------------------------------
C---------------------------------------------------------------------------------------------------------------
D----------------------------------------------------------------------------------------------------3---------
G--------------------------8------------------7----------------2--2--2--2--2--2--3--------------------------
A----5--5--5--5--5--5----------------------------------------------------------------------------------------

variation:
F---------------------------------------------------------------------------------------------------------------
C---------------------------------------------------------------------------------------------------------------
D---------------------------------------------------------------------------------------------------------------
G--------------------------8------------------7--------------------6---6---6---5---5---5---4---4-----------
A----5--5--5--5--5--5----------------------------------------------------------------------------------------

There. Thats the good and true version. You can probly figure out the rest. Have fun dawgs!