Korn: другие аккорды и тексты

Табулатура для бас-гитары: Korn - "Porno Creep"

» Главная
» Аккорды
» Школа игры
» Софт для гитары
» Схемы примочек
» Магазин
» Продам
» Куплю
» Фотографии
» [ne]FORMAT
» Ссылки
» Форум
» Знакомства
» MIDI
» Контакты


»



Porno Creep

Korn

подбор: James Copley (jcopley18@hotmail.com)

Dropped A
T = thumbslap

5 string...
G|---------------------------------5-3---
D|---------------3------------3--5-----3-
A|---------3--5----------3--5------------
E|----3--5----------3--5-----------------
A|--0-------------0----------------------

4 string...
G|----------------------------------5-3---
D|--------------3-------------3--5------3-
A|---------3--5----------3--5-------------
D|--0-3--5--------0-3--5------------------

A lot of veriations like slideing up each low string
or playing real high than dropping low.