Korn: другие аккорды и тексты

Табулатура для бас-гитары: Korn - "Mr Rogers"

» Главная
» Аккорды
» Школа игры
» Софт для гитары
» Схемы примочек
» Магазин
» Продам
» Куплю
» Фотографии
» [ne]FORMAT
» Ссылки
» Форум
» Знакомства
» MIDI
» Контакты


»



Mr Rogers

Korn

подбор: max asare

       
    5-string bass in dropped-A tuning (A,E,A,D,G)
    
    
    INTRO:
    
    A|-----------
    E|-----------
    A|--0--0--0--
    
    A|-----------4/3--1/0----------------------|
    E|-----------------------------------------|
    A|--0--0--0------------0--0--0--5/6--6--6--|
    
    
    CHORUS:
    
    A|---------------------------------------------------|
    E|---------------------------------------------------|
    A|--1p0--0--0--1p0--0--0--3--6--6--6--6--6--6--6--6--|
    
    
    VERSE:
    
    E|----------------------------------------------------|
    A|--0--0--0--0----7--7--7--7--6--6--6--6--6--6--6--6--|
    
    
    BRIDGE:
                (2X)         (1X)
    A|--0-----------  --0--------|
    E|-----0--------  -----0-----|
    A|--------0--2--  --------0--|
    
    
    E|-------------------------------|
    A|--0--0---0---0--0---0--0--6----|
    
    
    OUTRO:
    
    E|-----------------------------------|
    A|--1p0--0--0--1p0--0--0--0--1p0--0--|