Korn: другие аккорды и тексты

Табулатура для бас-гитары: Korn - "Low Rider"

» Главная
» Аккорды
» Школа игры
» Софт для гитары
» Схемы примочек
» Магазин
» Продам
» Куплю
» Фотографии
» [ne]FORMAT
» Ссылки
» Форум
» Знакомства
» MIDI
» Контакты


»



Low Rider

Korn

подбор: rageman@pop.erols.com


Main Riff

G-----------------------
D------------0---0-3-5-5
A------2--3-------------
E-3-3-------------------

Ocasionally

G--------------------
D------------3-5-----
A------3-5--------3-5
E-3-5----------------


--------------------------------------------------------------

Transcribed By: diablo7384@aol.com

Main Riff

G----------------------------
D------------0-------0------
A------2--3----0-3----0---
E-3-3---------------------3-

Ocasionally

G--------------------
D------------3-5-----
A------3-5--------3-5
E-3-5----------------