KoRn: другие аккорды и тексты

Табулатура для бас-гитары: KoRn - "Blind"

» Главная
» Аккорды
» Школа игры
» Софт для гитары
» Схемы примочек
» Магазин
» Продам
» Куплю
» Фотографии
» [ne]FORMAT
» Ссылки
» Форум
» Знакомства
» MIDI
» Контакты


»



Blind

(альбом "KoRn")

KoRn

подбор: Andy Martone (amartone@capaccess.org)




 
I'm not 100% sure that this is right.. I figured this out pretty quickly..
Dropped {D} tuning should work.. I know Fieldy plays a 5-string but this 
sounds right..                                                            
 
Intro
 
G|--------------------------|
D|--------------------------|
A|----12--------------------|
D|--0----13-10-0----0----0--|
 
Main riff 1/Chorus
(The heavy distorted part)
 
G|---------------------------|
D|---------------------------|
A|---------------------------|
D|--0-2-0-3-0-2-0-3-5-5-5-5--|
 
Main riff 2
(The mellower part)
 
G|---------------------------|
D|---------------------------|
A|---------------------------|
D|--0-0-0-1-1-1-0-0-0-1-1-1--|
 
Pre-Chorus
(I'm so blind..)
 
G|------------------|
D|*----------------*|
A|*----------------*|
D|--0-1-0-0-1-5-0---|
                ^ Drop this note in..       
 
Outro
 
G|-----------------------|
D|*---------------------*|
A|*--13-------12--------*|
D|-----13-12-----12-13---|