Korn: другие аккорды и тексты

Табулатура для бас-гитары: Korn - "Kill You"

» Главная
» Аккорды
» Школа игры
» Софт для гитары
» Схемы примочек
» Магазин
» Продам
» Куплю
» Фотографии
» [ne]FORMAT
» Ссылки
» Форум
» Знакомства
» MIDI
» Контакты


»



Kill You

Korn

подбор: max asare

 
    5-string bass in dropped-A tuning (A,E,A,D,G)
    Slap all notes
    
    
    INTRO
    
    A|--------------------------------------------------------|
    E|--------------------------------------------------------|
    A|--3--3--3--3--3--3--3--3--3--2--2--2--2--2--2--2--2--2--|
    
    
    PRE-CHORUS
    
    A|--------------|
    E|--------0-----|
    A|--3--2-----0--|
    
    
    CHORUS
    
    A|------------------------------------
    E|------------------------------------
    A|--X--X--X--X--X--X--X--X--X--X--X--X...
    
    	Keep the same rhythm as the drums
    
    
    BRIDGE
    
    A|--------------------------------|
    E|--------------------------------|
    A|--0--0--0--0--0--0--0--0--0--0--|
    
    
    OUTRO
    
    G|--9-------------------9--10--9---------12-----|
    D|-----10--9----------------------9--10---------|
    A|------------10--------------------------------|
    E|----------------7-----------------------------|
    A|-------------------0-----------------------0--|