Korn: другие аккорды и тексты

Табулатура для бас-гитары: Korn - "It's On!"

» Главная
» Аккорды
» Школа игры
» Софт для гитары
» Схемы примочек
» Магазин
» Продам
» Куплю
» Фотографии
» [ne]FORMAT
» Ссылки
» Форум
» Знакомства
» MIDI
» Контакты


»



It's On!

(альбом "Follow The Leader")

Korn

подбор: James Copley (jcopley18@hotmail.com)

Dropped A
T = thumbslap

Intro/Prechorus/preverse
G|------------------------------ right      G|--------
D|------------------------------ before     D|--------
A|------------------------------ prechorus  A|--6-5---
E|------------------------------ play...    E|------4-
A|--5--6-4-4---5--6-5-6\\\\-x-x-            A|--------
                            T T
chorus
G|----------------------
D|----------------------
A|----------------------
E|--6-5-------5-6-------
A|------4-7-6-----4-7-6-


--------------------------------------------------------------

Transcribed By: James Copley (jcopley18@hotmail.com)

dropped A
T=thumbslap
\=downslide

intro

G|-----------------------------------
D|-----------------------------------
A|-----------------------------------
E|-----------------------------------
A|--5-6--4-4----5-6--4-5\\\\\\-X-X---
T T
prechorus/preverse

G|-------------------------
D|-------------------------
A|-------------------------
E|-------------------------
A|--5-6--4-4----5-6--4-5---
T T T T T T T T 
verse

G|---------- then play G|---------
D|---------- this in D|---------
A|---------- the A|---------
E|---------- middle E|--6-5----
A|--5-5--5-- A|------4--

chorus

G|----------------------
D|----------------------
A|----------------------
E|--6-5-------5-6-------
A|------4-7-6-----4-7-6- i left this part the same



--------------------------------------------------------------

Transcribed By: Scott Huber (LowEnd9754@aol.com)

                 Come on! (Intro)              8x                       
F---||--------------------|--------------------||--||-------------------
C---||--------------------|--------------------||--||-------------------
G---||*-------------------|----------------3--*||--||*--0--3p-----------
D---||*-------------------|-------------------*||--||*------------------
A---||---0--3p2--0--2--0--|--0--3p2--0--2------||--||-------------------
                                                                        

    Verse 1 & 2                      12x              Pre-Chorus        
F---------------|--------------------||--||--------------------|--------
C---------------|--------------------||--||--------------------|--------
G---2--0--2--0--|--0--3p2--0--2--3--*||--||*-------------------|--------
D---------------|-------------------*||--||*-------------------|--------
A---------------|--------------------||--||---0--3p2--0--2--0--|--0-----
                                                                        

                   8x       Chorus                                      
F------------------||--||-----------------------------|-----------------
C------------------||--||-----------------------------|-----------------
G--------------3--*||--||*-----12--10--5--5--7h8p6h7--|--10--12--5------
D-----------------*||--||*----------------------------|-----------------
A---3p2--0--2------||--||-----------------------------|-----------------
                                                                        

                 2x       "Hold me inside.." (Bridge)                   
F----------------||--||--------------------|----------------------------
C----------------||--||--------------------|----------------------------
G---5--7h8p6h7--*||--||*--0--3p2--0--2--0--|--0-----3p2--0--2^--(3)-----
D---------------*||--||*-------------------|----------------------------
A----------------||--||--------------------|----------------------------
                                                                        

     8x       Outro                                 8x  Fade out        
F----||--||--------------------|--------------------||------------------
C----||--||--------------------|--------------------||------------------
G---*||--||*-------------------|----------------3--*||------------------
D---*||--||*-------------------|-------------------*||------------------
A----||--||---0--3p2--0--2--0--|--0--3p2--0--2------||------------------
                                                                        



========================================================================
==                       TABLATURE EXPLANATION                        ==
========================================================================

----------                ----------                ----t---
----5h8--- Hammeron       ----(8)--- Ghost          ----6--- Tap
----------                ---------- Note           --------
----5p8--- Pulloff        ----------                --------

----------                ----------                -----p--
----5/8--- Slide Up       -----x---- Dead           -----7-- Pop
----------                ---------- Note           --s-----
----5\8--- Slide Down     ----------                --5----- Slap 

----------                ||------|| Repeat         --------
----5~~~-- Vibrato        ||*----*||                ---5^--- Bend
----------                ||*----*||                --------
----------                ||------||                --------

----------                ----------                --------
-4:------- Time           ----------                --------
-4:------- Signature      ----------                --------
----------                ----------                --------

Rhythm:
  w = whole note            W = dotted whole
  h = half note             H = dotted half
  q = quarter note          Q = dotted quarter
  e = eighth note           E = dotted eighth
  s = sixteenth note        S = dotted sixteenth
  t = 32nd note             T = dotted 32nd
  x = 64th note             X = dotted 64th
  ^ = triplet