Korn:

: Korn - "Got The Life"










[ne]FORMAT



MIDI







Got The Life

Korn



Tuning:Whole Step Down (DGCFAD)

Fig1 (Intro/Chorus riff)
|-------------------------------------|
|------------14--14-15----------------|
|-11--9--12-------------11--9--12--7--|
|------------11--11-12----------------|
|-9---7--10-------------9---7--10--5--|
|-------------------------------------|
Fig2 (Verse riff)
|-14-15-14--14--|-14-12-19-|
|---------------|----------|
|---------------|----------|
|---------------|----------|
|---------------|----------|
|---------------|----------|
Fig4 (Outro riff)
|--------------|
|-14--14-15-15-|
|--------------|
|-11--11-12-12-|
|--------------|
|--------------|
Fig5 (Outro riff)
|----------------|
|-14--14-15------|
|-----------11---|
|-11--11-12------|
|-----------9----|
|----------------|
Fig6(Chorus riff)
  A    G    Eb   D
|----------------------|
|----------------------|
|----------------------|
|-9-9--7-7--3-3--2-2---|
|-9-9--7-7--3-3--2-2---|
|-7-7--5-5--1-1--0-0---|

Fig7 (Verse Intelude Riff
  B     A  B
|--------------|
|--------------|
|--------------|
|-11-11-9--11--|
|-11-11-9--11--|
|-9--9--7--9---|

Fig2
Fig7
Fig2
Fig1 & Fig6
Fig8
Fig9
Fig1 & Fig6
Fig4
Fig5

-------------------------------------------------------------------------------------
6-string tuned (low to high: E A D G B E).
Intro
|| -------------------------------------------------------------
|| -------------------------------------------------------------
|| ---9-9-9-9-9-9-9-9-7-7-7-10-10-10--16--17--------------------
|| ---x-x-x-x-x-x-x-x-x-x-x--x--x--x---x---x--------------------
|| ---7-7-7-7-7-7-7-7-5-5-5--8--8--8--14--15--------------------
|| -------------------------------------------------------------
Chorus
|| -------------------------------------------
|| -------------------------------------------
|| -------------------------------------------
|| ----7-7-7-7-7-7-7-7-5-5-5-8-8-8------------
|| ----7-7-7-7-7-7-7-7-5-5-5-8-8-8------------
|| ----5-5-5-5-5-5-5-5-3-3-3-6-6-6------------

 

Got The Life

 

Hate, something, sometime, someway, something kick off the front
floor.
Mine? Something, inside.
I'll never ever follow.
So give.. me.. some.. thing.. that.. is.. for.. real.
I'll never ever follow.

Get your boogie on...

Hate, something, someway, each day, dealing with no forgiveness.
Why?
This shit inside.
Now everyone will follow.
So give.. me.. noth.. ing.. just.. feel.
And now this shit will follow.

God thanks me, the more I see the light, who wants to see?
God told me, I've already got the life, oh I say...
God thanks me, the more I see the life, who wants to see?
God told me, I've already got the life, oh I say...

Each day I can feel it swallow, inside something they took from me.
I don't feel your deathly ways.
Each day i feel so hollow, inside I was beating me,
You will never see, so come dance with me.

Dance with me
Rumbiddieboo
Rum bum dee dum dee bum diddie doo
ME!

God thanks me, the more I see the light, who wants to see?
God told me, I've already got the life, oh I say...
God thanks me, the more I see the life, who wants to see?
God told me, I've already got the life, oh I say...

Got the life.

Got... the... life.