Korn: другие аккорды и тексты

Табулатура для бас-гитары: Korn - "Got The Life"

» Главная
» Аккорды
» Школа игры
» Софт для гитары
» Схемы примочек
» Магазин
» Продам
» Куплю
» Фотографии
» [ne]FORMAT
» Ссылки
» Форум
» Знакомства
» MIDI
» Контакты


»



Got The Life

(альбом "Follow The Leader")

Korn

подбор: jonas@tcia.net


Tuning:
5-String:  Tuned down one whole step.  (low to high:  A D G C F)
4-String:  Tune all strings down to a perfect fifth (low to high: A D G C)
(Slap Bass Notation:  T = thumb slap  P = finger pull)



~INTRO~  (play 8 times)


      T  P  T  P    T   P     T   P   T       T    T         T    
G:|---------------------------------------|------------------------------:|
D:|---------------------------------------|------------------------------:|
A:|------2-----2--------------2-------2---|------------------------------:|
E:|---------------------------------------|---5--------------------------:|
B:|---0-----0-------0--(0)--------0-------|--------6---------4-----------:|


      T       T  P  T   T       T  P  T   T  P  T  P
G:|---------------------------------------------------:|
D:|---------------------------------------------------:|
A:|--------------X-----------------X---------X-----X--:|   --repeat measure
E:|---------------------------------------------------:|   --2 more times
B:|---0 ~ 2---X-----2---0 ~ 2---X-----2---X-----X-----:|


      T       T  P  T    T  T 
G:|---------------------------------------------------:|
D:|---------------------------------------------------:|
A:|--------------X------------------2-----------------:|
E:|---------------------------------------------------:|
B:|---0 ~ 2---X-----2----0--2-------------------------:|



~1st Verse~

"Hate something....sometime.....someway...."

      T       T  P  T   T       T  P   T   T  P  T  P
G:|----------------------------------------------------:|
D:|----------------------------------------------------:|
A:|--------------X-----------------X----------X-----X--:|
E:|----------------------------------------------------:|
B:|---0 ~ 2---X-----2---0 ~ 2---X------2---X-----X-----:|

      T       T  P  T   T   T  P  T   T  P  T  P
G:|----------------------------------------------------:|
D:|----------------------------------------------------:|
A:|--------------X-------------X---------X-----X-------:|
E:|----------------------------------------------------:|
B:|---0 ~ 2---X-----2---0---X-----2---0-----X----------:|


      T       T  P  T   T    T  P  T   T  P
G:|----------------------------------------------------:|
D:|----------------------------------------------------:|
A:|--------------X--------------X---------X------------:|
E:|----------------------------------------------------:|
B:|---0 ~ 2---X-----2---0----X-----2---X---------------:|


G:|---------------------------------------------------------------------:|
D:|---------------------------------------------------------------------:|
A:|----2--------2-------2------2------2-----2------2------2-------------:|
E:|---------------------------------------------------------------------:|
B:|---------------------------------------------------------------------:|



~2nd Verse~

"Hate something...somewhere each day...."


(Played like the first verse)


~CHORUS~

      T   P  T   P    T   T    P  T  P       T        T          T
G:|--------------------------------------|-------------------------------:|
D:|--------------------------------------|-------------------------------:|
A:|-------2------2-------------2-----2---|---5---------------------------:|
E:|--------------------------------------|-------------------------------:|
B:|---0------0--------0--(0)------0------|------------6----------4-------:|


              T      T         T      		(Bridge)  "Each Day...."
G:|-------|------------------------------|-----|--------------------------:|
D:|-------|------------------------------|-----|--------------------------:|
A:|-------|---5--------------------------|-----|---5----------------------:|
E:|-------|------------------------------|-----|--------------------------:|
B:|---0---|----------6---------4---------|--0--|---------6----------4-----:|


(Fill continuing verses with form in verse 1 & 2)


~Out Chorus~

      T    P  T  P   T         P  T  P       T    T            T
G:|--------------------------------------|--------------------------------:|
D:|--------------------------------------|--------------------------------:|
A:|--------2-----2-------------2-----2---|---5----------------------------:|
E:|--------------------------------------|--------------------------------:|
B:|---0-------0------0---(0)------0------|--------6------------4----------:|


~Outro~


G:|-------------------------|---------------------------|-----------------:|
D:|-------------------------|---------------------------|-----------------:|
A:|--------------2----------|---5-----------------------|-----------------:|
E:|-------------------------|---------------------------|-----------------:|
B:|---0---0-------------0---|-----------6-----------4---|------0----------:|