Korn:

: Korn - "Freak On A Leash"










[ne]FORMAT



MIDI







Freak On A Leash

Korn



==========
| Tuning |
==========
Seven String guitar tuned down one whole step
                (From Low To High)
           Standard       To Play This Song
7 string      B                   A
6 string      E                   D
5 string      A                   G
4 string      D                   C
3 string      G                   F
2 string      B                   A
1 string      E                   D
============
| Notation |
============
/     =     Slide Up
     =     Slide Down
P.M.  =     Palm Mute
x     =     Stop sound (Not a mute in this tab)
h     =     Hammer On
p     =     Pull Off
                 ======================================
                 |   "F R E A K  O N  A  L E A S H"   |
                 | Full Seven String Guitar Tablature |
                 ======================================
==================================
| Intro / Verse (Without Drums)* |
==================================
Riff {A}
      Munky           Head
D||--------19------||---------24----||
A||-17--------18---||-----22--------||
F||----------------||-21------------||
C||----------------||---------------||
G||----------------||---------------||
D||----------------||---------------||
A||----------------||---------------||
*You play this during the first verse BEFORE the drums come in.
Also, when Munky hits the High {A} 18th fret note, Head starts his
little part of this riff.  Then, when Head hits the High {D} 24TH fret
note, Munky starts his part of this riff.
=======================
| Verse (With Drums)* |
=======================
Riff {B}
   Munky             Head
D||---------18------||---------24-||
A||-17--------*19---||-----22-----||
F||-----------------||-21---------||
C||-----------------||------------||
G||-----------------||------------||
D||-----------------||------------||
A||-----------------||------------||
   *-To get this note to
     sound like Munky does
     use a Flanger set to
     vibrato (I just turn all
     the way clock-wise.)
*These Riffs are only done when David plays the verse with the band
==============
| Pre Chorus |
==============
Riff {C}
      Munky & Head
D||----------------------------------------||
A||----------------------------------------||
F||-13/-14-13---13---13/-14-13---13--10--||
C||----------------------------------------||
G||-11/-12-11---11---11/-12-11---11---8--||
D||------------0-----------------0---------||
A||----------------------------------------||
Riff {D}
      Munky & Head
D||-------------------||
A||-------------------||
F||-13/-14-13---13---||
C||-------------------||
G||-11/-12-11---11---||
D||------------0------||
A||-------------------||
==========
| Chorus |
==========
Riff {E}
      Munky & Head
D||------------------------------||
A||------------------------------||
F||------------------------------||
C||-9-9-9-9-9-9-9-9--------------||
G||-9-9-9-9-9-9-9-9-9-9-9-10--8--||
D||-7-7-7-7-7-7-7-7-9-9-9-10--8--||
A||-----------------7-7-7--8--6--||
==========
| Bridge |
==========
Riff {F}
      Munky & Head
D||----------10-10------------10-10p9h10p9--||
A||-----------------------------------------||
F||-----------------------------------------||
C||-----------------------------------------||
G||-----------------------------------------||
D||----9--9-----------9--9------------------||
A||-----------------------------------------||

Riff {G}
      Munky or Head (One keeps playing Riff F)
D||----------10-10------------10-10p9h10p9--||
A||-----------------------------------------||
F||-----------------------------------------||
C||-----------------------------------------||
G||-----------------------------------------||
D||----9--9-----------9--9------------------||
A||-----------------------------------------||
                            Play these notes
                            with the Flanger
                            the same way you
                            used it in Riff B.
Riff {H}
      Munky & Head
D||----------------||
A||----------------||
F||----------------||
C||----------------||
G||-4-5-6-7--------||
D||-4-5-6-7--------||
A||-2-3-4-5--------||
Riff I
      Munky & Head
D||-------------||
A||-------------||
F||-------------||
C||-------------||
G||-4-5-4-3-----||
D||-4-5-4-3-----||
A||-2-3-2-1-----||
===============
| Last Chorus |
===============
Riff J
      Munky & Head
D||---------------------------||
A||---------------------------||
F||---------------------------||
C||-9-9---9---9-9-9-9---------||
G||-9-9---9---9-9-9-9-9-10-8--||
D||-7-7---7---7-7-7-7-9-10-8--||
A||-------------------7--8-6--||
Riff K
      Munky or Head
D||--7---------/19----7--|---------8-----5--||
A||-----------------------|------------------||
F||-----------------------|------------------||
C||-----------------------|------------------||
G||-----------------------|------------------||
D||-----------------------|------------------||
A||-----------------------|------------------||

==========================
| Song Order with Lyrics |
==========================
Intro: Riff {A} X5
With: Riff {A} X2
Something takes a part of me.
Something lost and never seen.
With Riff {B} X7
Everytime I start to believe,
Something's raped and taken from me... from me
Life's got to always be messing with me (You wanna see the light)
Can't they chill and let me be free     (So do I)
Can't I take away all this pain         (You wanna see the light
I try to every night, all in vain... in vain
With: Riff {C} X3
Sometimes I cannot take this place.
Sometimes it's my life I can't taste.
Sometimes I cannot feel my face.
With: Riff {D} X1
You'll never see fall from grace
With: Riff {E} X4
Something takes a part of me.
You and I were meant to be.
A cheap fuck for me to lay
Something takes a
No guitar here: part of me.
With: Riff {B} X4
Feeling like a freak on a leash.     (You wanna see the light)
Feeling like I have no release.      (So do I)
How many times have I felt diseased? (You wanna see the light)
Nothing in my life is free... is free
With: Riff {C} X4
Sometimes I cannot take this place.
Sometimes it's my life I can't taste.
Sometimes I cannot feel my face.
With Riff {D} X1
You'll never see fall from grace
With: Riff {E} X4
Something takes a part of me.
You and I were meant to be.
A cheap fuck for me to lay
Something takes a
No Guitar here: part of me.
No Guitar Here:
Boom na da mmm dum na ema
Da boom na da mmm dum na ema
Da boom na da mmm dum na ema
Da boom na da mmm dum na ema
With: Riff {F} X1
Da boom na da mmm dum na ema
With: Riff {G} X1
Da boom na da mmm dum na ema
With: Riff {F} X1
Da boom na da mmm dum na ema
With: Riff {G} X1
Da boom na da mmm dum na ema
With: Riff {F} X1
Da boom na da mmm dum na ema
With: Riff {G} X1
Da boom na da mmm dum na ema
With: Riff {F} X1
Da boom na da mmm dum na ema
With: Riff {G} X1
Da boom na da mmm dum na ema
With: No guitar: GO!
Riff {H} X3
Riff I X1
With: Riff {H} X3
So...    fight! something on the...
Fight... some things they fight
So...    something on the...
With: Riff I X1
Fight... some things they fight
With: Riff {H} X3
Fight... something of the
No...    some things they fight
Fight... something of the...
With: Riff I X1
Fight... some things they fight
With: Riff J X4
Something takes a part of me.
You and I were meant to be.
A cheap fuck for me to lay
Something takes a part of me.
With: Riff K (Space Noise) and Riff J X4
Part of me...
Part of me...
Part of me...
Oh...

----------------------------------------------------------------
Seven-string guitar, tune it down one step.
Intro, verse:
E------------------19----------------24-----------  remember, its 
B--17------------------18--------22---------------  tuned down a 
G----------------------------22-------------------  step so it 
D-------------------------------------------------  sounds a step
A-------------------------------------------------  lower.
E-------------------------------------------------
B-------------------------------------------------
Pre-Chorus:
Sometimes I cannot take this place.
E----------------------------------------------
B----------------------------------------------
G----13/1413-13---13----13/1413-13--13-10----
D-----x-x---x-x-----x----x---x--x--x---x--x----
A----11/1211-11---11----11/1211-11--11--8----
E----0-----------0-------0---------------------
B----------------------------------------------
Chorus: Something takes a part of me.
E------------------------------------------------------------
B------------------------------------------------------------
G-4-4-4-4-4-4-4--3-3--4----2---4-4-4-4-4-4-4-4---3-3--4----2-
D-4-4-4-4-4-4-4--4-4--5----3---4-4-4-4-4-4-4-4---4-4--5----3-
A-2-2-2-2-2-2-2--4-4--5----3---2-2-2-2-2-2-2-2---4-4--5----3-
E----------------2-2--3----1---------------------2-2--3----1-
B------------------------------------------------------------
For this part after the verse and chorus 2x:
Boom na da mmm dum na ema
Fieldy (pick scrapes):
A---------x-x-----
E---------x-x-----
P=muted
E------10-10----10-10-9-10--9-------10-10-----10-10-10
B-----------------------------------------------------
G-----------------------------------------------------
D-----------------------------------------------------
A-----------------------------------------------------
E-9-9-------9-9----------------9-9--------9-9---------
B-----------------------------------------------------
Mute..................................................]
GO!:
E-------------------------------------------------------
B-------------------------------------------------------
G-------------------------------------------------------
D-------------------------------------------------------
A-4-5-6-7--4-5-6-7--4-5-6-7--4-5-4-3-------------------- 
E-4-5-6-7--4-5-6-7--4-5-6-7--4-5-4-3--------------------
B-2-3-4-5--2-3-4-5--2-3-4-5--2-3-2-1--------------------
If your on a six string, just hit the low {E} and {A} strings
E-------------------------------------------------------
B-4-4-----4-4-4-4---------------------------------------
G-4-4-----4-4-4-4---3-3---4---2-------------------------
D-4-4-----4-4-4-4---4-4---5---3-------------------------
A-2-2-----2-2-2-2---4-4---5---3-------------------------
E-2-2-----2-2-2-2---2-2---3---1-------------------------

--------------------------------------------------------------------------
Tuning: Whole Step Down (DGCFAD)
 
Fig1 (verse riff)
Guitar 1                           Guitar 2
|--16---22---17--------------|--------------------12------|
|----------------------------|----------------------------|
|----------------------------|-------------9--10----------|
|----------------------------|----------------------------|
|----------------------------|----------------------------|
|----------------------------|----------------------------|

Fig2 (Pre-Chorus riff)
|-------------------------------------|
|-------------------------------------|
|-13s14s13---13---13s14s13---13--10---|
|-------------------------------------|
|-11s12s11---11---11s12s11---11--8----|
|----------0---------------0----------|

Fig3 (Interlude riff)
|-----10-10------10-10-9s10s9----|
|--------------------------------|
|-7-7-------7-7------------------|
|--------------------------------|
|--------------------------------|
|--------------------------------|
 
Fig4 (Chorus riff)
  {A}  {A}  {E}     {F}   {D}
|-----------------------|
|-----------------------|
|-4--4------3-----------|
|-4--4--4-4---5---2-----|
|-2--2--4-----5---2-----|
|-------2-----3---0-----|

Fig5 (Interlude riff)
  {B}    {C}   {C#}  {D}
|-------------------|
|-------------------|
|-------------------|
|-11--12--13--14----|
|-11--12--13--14----|
|-9---10--11--12----|

Fig1
Fig2
Fig4
Fig1
Fig2
Fig4
Fig3
Fig5
Fig4
Fig4

-------------------------------------------------------------------------------------
Tuning:Whole Step Down (DGCFAD) 
  
Intro 
Guitar 1 (Head)                       Guitar 2 (Munky) 
|-----------19---------------|---------------------12--------| 
|----17----------18----------|-------------------------------| 
|----------------------------|---------9----10---------------| 
|----------------------------|-------------------------------| 
|----------------------------|-------------------------------| 
|----------------------------|-------------------------------| 
  
Pre-Chorus riff 
|------------------------------------------------------------| 
|------------------------------------------------------------| 
|-13s14s13---------13---13s14s13-----------13---10-----------| 
|------------------------------------------------------------| 
|-11s12s11---------11---11s12s11-----------11---8------------| 
|----------------0----------------------------0--------------| 
  
Interlude riff 
|---------10--10------------10--10--9s10s9-----------| 
|----------------------------------------------------| 
|-7--7---------------7--7----------------------------| 
|----------------------------------------------------| 
|----------------------------------------------------| 
|----------------------------------------------------| 
  
Chorus riff 
|--------------------------------| 
|--------------------------------| 
|-4--4---------3-----------------| 
|-4--4---4----4---5----2---------| 
|-2--2---4--------5----2---------| 
|---------2--------3----0--------| 
  
Interlude riff 
  
(3 x)                              (1 x) 
|--------------------------||--------------------------| 
|--------------------------||--------------------------| 
|--------------------------||--------------------------| 
|-11---12---13---14--------||-11---12---11---10--------| 
|-11---12---13---14--------||-11---12---11---10--------| 
|-9----10----11---12-------||-9----10----9-------------| 

-------------------------------------------------------------------------------------

Tuning: 2.5 steps down
Fig1 (verse riff)
Guitar 1			Guitar 2
|--14---20---15------|-----------------10-------|
|--------------------|--------------------------|
|--------------------|-------------7--8---------|
|--------------------|--------------------------|
|--------------------|--------------------------|
|--------------------|--------------------------|
Fig2 (pre-chorus riff)
|----------------------------------------|
|----------------------------------------|
|-11s12s11---11---11s12s11---11--8-------|
|----------------------------------------|
|--9s10s9-----9-----9s10s9-----9---6-----|
|-----------0-----------------0----------|
Fig3 (interlude riff)
|-----8-8---------8-8-7s8s7------|
|--------------------------------|
|-5-5-------5-5------------------|
|--------------------------------|
|--------------------------------|
|--------------------------------|
Fig4 (chorus riff)
|-------------------------------------|
|-------------------------------------|
|--2-----2-----------1----------------|
|--2-----2-----2--2-----3-----2-------|
|--0-----0-----2--------3------2------|
|---------------0--------1------0-----|
Fig5 (interlude riff)
|-----------------------------|
|-----------------------------|
|-----------------------------|
|-9-----10-----11-----12------|
|-9-----10-----11-----12------|
|-7-----8-------9------10-----|

order of play:
Fig1
Fig2
Fig4
Fig1
Fig2
Fig4
Fig3
Fig5
Fig4
Fig4