Korn:

: Korn - "B.b.k."










[ne]FORMAT



MIDI







B.b.k.

Korn



6 String Tuned to (E {A} {D} {G} {B} E)
                                              
riff 1         4x    riff 2      4x scratch and do over  
E|---------------|---|-6666-111111-12---|---|
B|-------999-11- |---|-7777-121212-13---|---|
G|--7777-999-11  |---|-7777-121212-13---|-9-|
D|--7777---------|-7-|------------------|-9-|
A|---------------|-7-|----------------0-|-9-|
E|---------------|-7-|----------------0-|---|
riff 3 scratch   scratch    riff 4           8x   string 1 
|-----|---|------|---|      |------------------|  |-9/15-|  
|-----|---|------|---|      |------------------|  |------|  
|-9--9|-9-|-8--8-|-8-|  4x  |------------------|  |------|
|-9-9-|-9-|-8-8--|-8-|      |-0-33-5-3-0-3-5-3-|  |------|
|-8---|-8-|-7----|-7-|      |-0-33-5-3-0-3-5-3-|  |------|
|-----|---|------|---|      |-0-22-3-2-0-2-3-2-|  |------|
5x scratch before 9. On last time don't slide to 15.
string 2 4x          * hit strings  riff 5        8x  
|--------| |--------|  2 and 3 on  |---------------|
|--------| |--------|  the guitar  |---------------|
|--------| |--------|  head.       |---------------|
|---9--7-| |---7--*-|              |-3333-4-3-33-4-|
|--9--7--| |--9--7--|              |-3333-4-3-33-4-|
|-7--5---| |-7--5---|              |-1111-2-1-11-2-|
 riff 6      8x 
|------------|  
|------------|
|------------|
|0-4-2-3-1-1-|
|0-4-2-3-1-1-|
|0-2-0-1-1-1-|

Here is the order 
(riff 1)(riff 2)(riff 3)(riff 2)don't scratch on last two times
(riff 3)(riff 4)(string 1)(riff 4)(string 2)(riff 5)(riff 2)
(riff 2)(riff 6)(riff 2)

-------------------------------------------------------------------------------------
Tuning:Whole Step Down (DGCFAD)

Fig1 (Intro/Outro riff)
|-----------------------|
|-----------------------|
|-15-15-15-16-16-16-----|
|-----------------------|
|-13-13-13-14-14-14-----|
|------------------- 7--|
Fig2 (Verse riff)
|----------------------|
|----17-19-----17--19--|
|-16--------15---------|
|----------------------|
|----------------------|
|----------------------|
Fig3 (Chorus riff)
Guitar 1             Guitar 2
|-----------------|------------------------|
|-----13--12------|------------------------|
|-11---------10---|--------10-------10-----|
|-----10--9-------|-9--9-9-9--9--9--9--9---|
|-9----------8----|-9--9-9-8--9--9--8--9---|
|-----------------|-7--7-7----7--7-----7---|

Fig4 (Interlude riff)
|-----------------|
|---5-3----5-7----|
|-4------3--------|
|-----------------|
|-----------------|
|-----------------|
Lyrics:
Fig 2
Fig3 
Fig2
Fig3 
Fig4
Fig1
A   Ab   {B}  {B} (Fig2 here also)
A   Ab   {B}  {B} (Fig2 & Fig3 Guitar 1 here also)

 

B.B.K.

 

So you've seen I've gotten this far.
Please give me some place to worry.
I'm not trying to go there, so take me away.

Life sometimes pisses me off.
It's never a good trip for me
Every time I reach for love, it's taken away.

Night! So I play.
Give me a sign this is day.
Give me some patience, so I pray.
It's time to die. Is that what I want?

There's nothing wrong wanting to be loved.
Is there something wrong with me?
Once in my life I'd like to be really set free.

Let me be me.

Night! So I play.
Give me a sign this is day.
Give me some guidance, so I pray.
It's time to die. Is that what I want?

Take me away.
Taken away.
Take me away.
Taken... away.

Something I get, I got to get home
Run, run, run, run, run, run running home

Where is my home...

Night! So I play.
Give me a sign this is day.
Give me some patience, so I pray.
It's time to die. Is that what I want?

Night! So I play.
Give me a sign this is day.
Give me some guidance, so I pray.
It's time to die. Is that what I want?