Korn:

: Korn - "Ass Itch"










[ne]FORMAT



MIDI







Ass Itch

Korn



7-string guitar tuned down a full step
Intro
---------------
---------------
---------------
------9-9-9-8--
---------------
---------------
-0-0-----------
Verse same as intro
Bite! pain part
-------------------------------------
-------------------------------------
-------------------------------------
------------9-9-9-10-10-10-11-11-11--
-------------------------------------
-------------------------------------
-------------------------------------
Chorus
------14--------------
------14--------------
----------------------
----------------------Im not sure what that high note is in there
----------------------so if anyone know e-mail me at deftone742@aol.com
-2-2-2---2-2---2-2--2-
-0-0-0---0-0---0-0--0-
Bridge
-------19-----------
----------20-20-19--
-16-16--------------
--------------------The last time just play the 19 really fast
--------------------
--------------------
--------------------
Bridge 2 and outro
------------
------------
------------
------------
------------
-3-2-3-2-32-
-1-0-1-0-10-

 

Ass Itch

 

I hate writing shit, it is so stupid
What's my problem today?
Maybe I'm depressed,
Maybe I'm helpless to what comes out my hand
Pain... Pain... Pain

I hate writing shit, it is so stupid
Why do I feel this way?
Feelings in my heart
I'm in way too far
Can't it won't go away
Pain... Pain... Pain

Before long my song is dying

I hate writing shit
Ain't looking forward to it
What's fucked up, today?
Writing all this time
Feeling all that's mine
Come right out my hand
Pain... Pain... Pain

Before long my song is dying

Tell me now, I want to know
Is it me inside you see?
Ahh, it isn't fair
I gotta let this song inside me... free...

Set me free
It just set me free
It just set me free

Before long my song is dying

That's why I died, this lie, I try