Korn: другие аккорды и тексты

Табулатура для бас-гитары: Korn - "All in the Family"

» Главная
» Аккорды
» Школа игры
» Софт для гитары
» Схемы примочек
» Магазин
» Продам
» Куплю
» Фотографии
» [ne]FORMAT
» Ссылки
» Форум
» Знакомства
» MIDI
» Контакты


»



All in the Family

(альбом "Follow The Leader")

Korn

подбор: Bee (praupp@supridad.com.br)



Tuning:Ab Db Gb B E

Intro/chorus/outro
    
    T b h T P b h T T
E |---X-X-----X-X-------------------------------]
B |---X-X---X-X-X-------------------------------]
Gb|---X-X---X-X-X-------------------------------]
Db|-1-X-X-X---X-X-1-----------------------------]
Ab|-----------------1---------------------------]

Fred's Verses:

E |--------------------------------------]
B |--------------------------------------]
Gb|--------------------------------------]
Db|--------------------------------------]
Ab|-12-13-141312--12-141312--------------]

Jon's Verses:

E |---------------------------------]
B |---------------------------------]
Gb|-----------------------------*---]
Db|-1---1---1------1---1---1----*---]
Ab|---------------------------------]

=-=-=-=-=-=-=-=-=-=-=-=-=-=-=-=-=-=-=-=-=-=-=-=-=-=-=-=-=-=-=-=-=-=-=-=

T means Slap with thumb

P means pop

b means brushin' across with right hand fingernails

h means hammer on with the heel of your open right hand