Helloween:

: Helloween - "Future world"










[ne]FORMAT



MIDI







Future world

Helloween


Moderate speed
4/4 time

Intro Riff A (slightly muted)
|-----------------------------------||
|-----------------------------------||
|------------------------9--7-------||
|---9-7-9----9-7-9---9-7------9-7-9-||
|-7--------7-------7----------------||
|-----------------------------------||

Riff A acc.
|------|-----|------|-----|-----|----|-----|-----|
|------|-----|------|-----|-----|----|-----|-----|
|------|--%--|------|--%--|-----|--%-|-----|--%--|
|--9---|-----|--12--|-----|--7--|----|--9--|-----|
|--7---|-----|--10--|-----|--5--|----|--7--|-----|
|------|-----|------|-----|-----|----|-----|-----|


Bridge before Verse
|----------------|-----------------|---------------|---------------|
|----------------|-----------------|---------------|---------------|
|----------------|-----------------|*--------------|--------------*|
|-9--------------|-----------------|*-5----------5-|-9----------9-*|
|-7--7-7-7-7-7-7-|-7-7-7-7-7-7-7-7-|--3--3-3-3-3-3-|-7--7-7-7-7-7--|
|----------------|-----------------|---------------|---------------|
    P.M...........................]	     P.M....]		    P.M....]

|------|----||
|------|----||
|------|----||
|-3--2-|-2--||
|------|-0--||

Verse riff is slight variation of above bridge


Chorus consists of
E5     C5 D5 E5    C5    A5     B5
E5					C5 D5 E5				C5    B5


..That's all for now. Will post the remaining riffs and solos
when get time to work them out and actually listen to song again (this was
from memory).