Celine Dion:

: Celine Dion - "My Heart Will Go On"










[ne]FORMAT



MIDI



www.lpole.ru/shops/santehnika/zerkala-dlya-vannyi/.



My Heart Will Go On

Celine Dion



          C            G            F         G
        Every night in my dreams I see you, I feel you,
        That is how I know you go on
        Far across the distance and spaces between us
        You have come to show you go on


(chours)     C    G      F          G
           Near, far, wherever you are
               Am             G           F
           I belive that the heart does go on
           Once more, you open the door
           And you're here in my heart
           And my heart will go on and on


        Love can touch us one time and last far a lifetime
        And never let go till we're gone.
        Love was when I loved you, one true time I hold to
        In my life we'll always go on

(chours)

        You here, there' nothing to fear
        And I know that my heart will go on.
        We'll stay forever this way
        You are safe in my heart
        And my heart will go on and on


    My Heart Will Go On
    Lyrics by Will Jennings
    Music by James Horner

    Am             G           F         G
    Every night in my dreams I see you, I feel you,
    That is how I know you go on.
    Far across the distance and spaces between us
    You have come to show you go on.

    Am    G        F      G
    Near, far, wherever you are,
    I believe that the heart does go on.
    Once more, you open the door
    And you're here in my heart,
    And my heart will go on and on.

    Love can touch us one time and last for a lifetime,
    And never let go till we're gone.
    Love was when I loved you, one true time I hold to.
    In my life we'll always go on.

    Near, far, wherever you are,
    I believe that the heart does go on.
    Once more, you open the door
    And you're here in my heart,
    And my heart will go on and on.

    You're here, there's nothing to fear,
    And I know that my heart will go on.
    We'll stay forever this way.
    You are safe in my heart,
    And my heart will go on and on.


SOlo...

       F       C       H      C         F       C       H       C
     e-------------------------------| --------------------------- |
     a-------------------------------| --------------------------- |
     d-------------------------------| --------------------------- |      2
     g-------------------------------| --------------------------- |    times
     b-------------------------------| -------------------------1- |
     e-1-11--1-0-1--1--0-1--3-3/5-3--| -1-11--1-0-1--1--0-1--1---- |

            F      C         H        C        Dm      C      H     (C)

     b-3-5-5/6--6-6/8\--1/---13-11-10-8--10-11-10--8-6-5-6--5--3~/-1-------|
     e---------------------------------------------------------------------|

            F      C         H        C        Dm      C      H     (C)

     b-------6--6-6/8\--1/---13-11-10-8--10-11-10--8-6-5-6--6 5 6/-8/10-8--|
     e---------------------------------------------------------------------|

                        * My Heart Will Go On *

        F              C           H          C
        Every night in my dreams I see you, I feel you,
        That is how I know you go on
        Far across the distance and spaces between us
        You have come to show you go on


Chorus:    F     C       H         C
           Near, far, wherever you are
                Dm           C             H     (C)
           I belive that the heart does go on
           Once more, you open the door
           And you're here in my heart
           And my heart will go on and on


        Love can touch us one time and last far a lifetime
        And never let go till we're gone.
        Love was when I loved you, one true time I hold to
        In my life we'll always go on

Chorus.

        You here, there' nothing to fear
        And I know that my heart will go on.
        We'll stay forever this way
        You are safe in my heart
        And my heart will go on and on



                                TITANIC

  C       G       F       G          C       G       F
-------------------------0--1p0-----------------------------------
-1--11-1-0-1---1-0-1---3--0----3---1--11-1-0-1---1----------------
---0----0-0-0-0-0---2-2-2--0----0-0--0----0-0-0-0-0---2------2----
--2---2------0----3--3-----------0--2---2------0---3-3-3-33-3-3-3-  X 2
-3---3-----------3-----------------3---3-----------33---3-33---3--
---------3---------------3-----3-----------3----------------------



Chorus:
  Am       G       F        G        Am      G       F       G
------------------3--1--0h1----0-1-0--------------------------------
-1--1--0h13--3--3--1--1----3----------13-1-0-1---0----1---10--3--0--
---2-2------0-0--0--2--2------0-0-0--2--2-2-0-0-0-02-2-2-2---0-0--0-
--2---2----0---0--3----------0------2----------0----3---3---0---0---
-0--------------------------2------0---------------3----------------
----------3----------------3---------------3---------------3--------


  Am       G       F        G        Am      G       F       G
------------------3--1--0h1----0-1-0-----------------------0--1p0----
-1--1--0h13--3--3--1--1----3----------13-1-0-1---0-0-1---3---0---3---
---2-2------0-0--0--2--2------0-0-0--2--2-2-0-0-0-0---2-2-2-0-----0--
--2---2----0---0--3----------0------2----------0----3--3-----------0-
-0--------------------------2------0---------------3-----------------
----------3----------------3---------------3---------------3---------


Bridge:
  C
-----------
-11--1--1--
----0-0--0-
---2---2---
--3--------
-----------

 :

:

e-|------0---------------3-------0----------------------------------|
H-|--1-3---------3-1-3-------------3-1------------------------------|
G-|0------------------------------------------------2-------0-------|

e-|------0---------------3-------0-3-5--------------3---------------|
H-|--1-3---------3-1-3--------------------------------------3-------|
G-|0----------------------------------------------------------------|


:

e-|--------------------------------------------------0---------------|
H-|1-------1-1---1---0---1-------1---0---1-------3-----------3-------|
G-|------------------------------------------------------------------|

e-|------------------------------------------------------------------|
H-|1-------1-1---1---0---1-------0-----------------------------------|
G-|----------------------------------2---------------0---------------|

e-|--------------------------------------------------0---------------|
H-|1-------1-1---1---0---1-------1---0---1-------3-----------3-------|
G-|------------------------------------------------------------------|

e-|------------------------------------------------------------------|
H-|1-------1-1---1---0---1-------0-----------------------------------|
G-|----------------------------------2-------------------------------|

:

e-|------------------3-------1---0-----0-1-0---------------------------------|
H-|1-------3-----------------------3-----------3-1-0-1---0-------------------|
G-|----------------0-----------------------------------------2-------0-------|

e-|------------------3-------1---0-----0-1-0-----------------------0---------|
H-|1-------3-----------------------3-----------3-1-0-1---1-0-1---3-----3---1-|
G-|----------------0---------------------------------------------------------|


---   titanic  ---