Blink 182:

: Blink 182 - "When You Fucked Grandpa"










[ne]FORMAT



MIDI







When You Fucked Grandpa

( "Take Off Your Pants and Jacket")

Blink 182

: lakersfan86@hotmail.com

Verse: 

|--2--0--2--0-----------0---------| 
|----3--3--3--3---3---3---2---2-3-| 
|-------------------0-------2-----| 
|--0--0--0--0---------------------| 
|-------------------------0---0---| 
|-----------------3---3-----------| 

Chorus: 

|-----------------------------------| 
|--3---3---3---3-----2---2---2---2--| 
|----0---0---0---0-----2---2---2----| 
|-----------------------------------| 
|--------------------0---0---0---0--| 
|--3---3---3---3--------------------| 

If there are any corrections to this correction, please email me so I can fix it.