Blink182:

: Blink182 - "What's My Age Again?"










[ne]FORMAT



MIDI







What's My Age Again?

Blink182

: BLINK183 (blink183@list.ru)

Intro1

1|--------------------------------------------------|
2|------11-------11-------11-------11---------------|
3|----11--11---11--11---11--11---11--11-------------|
4|--9-----------------------------------------------|
5|-----------9--------------------------------------|
6|--------------------9--------11-------------------|

Intro2

1|----------------------------------------------------------|
2|------11-------11-------11-------11-------11-------11-----|
3|----11--11---11--11---11--11---11--11---11--11---11--11---|
4|--9-------------------------------------------------------|
5|-----------9----------------------------------------------|
6|--------------------9---------9-------11-------11---------|

Chorus1

1|--------------------------------------------------|
2|--------------------------------------------------|
3|------6-6---8-8---4-4-4-4-4-----------------------|
4|--4---6-6---8-8---4-4-4-4-4-----------------------|
5|--4---4-4---6-6---2-2-2-2-2-----------------------|
6|--2-----------------------------------------------|

Chorus2

1|--------------------------------------------------|
2|--------------------------------------------------|
3|------6-6---8-8-8-8-8-8-8-8-6-6-6-6-6-6-6-6--4----|
4|--4---6-6---8-8-8-8-8-8-8-8-6-6-6-6-6-6-6-6--4----|
5|--4---4-4---6-6-6-6-6-6-6-6-4-4-4-4-4-4-4-4--2----|
6|--2-----------------------------------------------|

Verse1 (Palm Mute)

1|--------------------------------------------------|
2|--------------------------------------------------|
3|--4-4-4-4---------6-6-6-6-8-8-8-8-----------------|
4|--4-4-4-4-4-4-4-4-6-6-6-6-8-8-8-8-----------------|
5|--2-2-2-2-4-4-4-4-4-4-4-4-6-6-6-6-----------------|
6|----------2-2-2-2---------------------------------|

Verse2 (Palm Mute)

1|--------------------------------------------------|
2|--------------------------------------------------|
3|--4-4-4-4---------6-6-6-6-6-6-6-6-4-4-4-4-4-4-4-4-|
4|--4-4-4-4-4-4-4-4-6-6-6-6-6-6-6-6-4-4-4-4-4-4-4-4-|
5|--2-2-2-2-4-4-4-4-4-4-4-4-4-4-4-4-2-2-2-2-2-2-2-2-|
6|----------2-2-2-2---------------------------------|

Solo1

1|--------------------------------|
2|----11----11-------11----11-----|
3|--8---11----11-------11----11---|
4|------------------9-------------|
5|--------------------------------|
6|--------------------------------|

Solo2

1|------------|
2|------------|
3|------------|
4|-------8h9--|
5|-9-9-9------|
6|------------|

Solo3

1|---------------|
2|---------------|
3|-------11------|
4|---8---------8-|
5|-9---9-----9---|
6|---------------|


------Intro1 x7------

I took her out, it was a Friday night
I wore cologne to get the feeling right
We started making out, and she took off my pants
But then I turned on the TV

------Intro2 x1------

And that's about the time she walked


-----Chorus1 x3------

Away from me
Nobody likes you when you're 23
And are still more amused by TV shows
What the hell is ADD?

-----Chorus2 x1------

My friends say I should act my age
What's my age again?
What's my age again?

------Intro1 x1-------
------Verse1 x3-------

Then later on, on the drive home
I called her mom from a pay phone
I said I was the cops
And your husband's in jail
This state looks down on sodomy

-----Verse2 x1-------

And thats about the time that bitch hung

-----Chorus1 x3------

Up on me
Nobody likes you when you're 23
And are still more amused by prank phone calls
What the hell is call ID?

-----Chorus2 x1------

My friends say I should act my age
What's my age again?
What's my age again?

------Solo1 x1------
------Solo2 x4------
------Solo3 x8------

And that's about the time she walked 

-----Chorus1 x3------

Away from me
Nobody likes you when you're 23
And you still act like you're in Freshman year
What the hell is wrong with me?

-----Chorus2 x1------

My friends say I should act my age
What's my age again?
What's my age again?

-----Chorus1 x3------

That's about the time that she broke up with me (what's my age again?)
No one should take themselves so seriously
With many years ahead to fall in line
Why would you wish that on me, 

-----Chorus2 x1------

I'll never wanna act my age
What's my age again?
What's my age again?

-----Chorus1 x3------
-----Chorus2 x1------