Blink 182: другие аккорды и тексты

Табулатура для бас-гитары: Blink 182 - "What's my age?"

» Главная
» Аккорды
» Школа игры
» Софт для гитары
» Схемы примочек
» Магазин
» Продам
» Куплю
» Фотографии
» [ne]FORMAT
» Ссылки
» Форум
» Знакомства
» MIDI
» Контакты


»



What's my age?

Blink 182

подбор: Mark Schnitzius

Tunings: E A D G

Guitar Starts then:

Intro play 2 times
G--------------------------
D--------------------------
A-----2--------4-----6-----
E---------2----------------


Play 5 times
G--------------------------
D--------------------------
A-----2222----4444-6666----
E---------2222-------------


Play on 6th time
G--------------------------------
D--------------------------------
A-----2222----444444444-222222---
E---------2222-------------------

Chorus Play 4 times
G------------------------------
D------------------------------
A-------44444---66666---222222-
E---2--------------------------

Verse is same as Intro
 Play
3 times
G--------------------------
D--------------------------
A-----2222----4444-6666----
E---------2222-------------


Play on 4th time
G--------------------------------
D--------------------------------
A-----2222----444444444-222222---
E---------2222-------------------

Chorus Play 4 times
G--------------------------
D--------------------------
A-----2222----4444-6666----
E---------2222-------------

Interlude
G----------------------------------------------------------------------
D-------8-----8---8\-----6-----6---6\-----4-----4---4-----6-----6---6--
A---6-6---6-6---6----4-4---4-4---4----2-2---2-2---2---4-4---4-4---4----
E----------------------------------------------------------------------


Chorus Play 12 times
G--------------------------
D--------------------------
A-----2222----4444-6666----
E---------2222-------------

End on this note

G-----------------------------
D-----------------------------
A-----2-----------------------
E-----------------------------