Blink 182: другие аккорды и тексты

Табулатура для бас-гитары: Blink 182 - "Wendy Clear"

» Главная
» Аккорды
» Школа игры
» Софт для гитары
» Схемы примочек
» Магазин
» Продам
» Куплю
» Фотографии
» [ne]FORMAT
» Ссылки
» Форум
» Знакомства
» MIDI
» Контакты


»



Wendy Clear

(альбом "Enema of the state")

Blink 182

подбор: Dom ( xb182punkx@yahoo.com )

> means strum
RIFF #1
G:------------------------------------------------
D:----3>--5>--3>----------------------------------
A:-3>---------------------------------------------
E:------------------------------------------------
RIFF #2
G:------------------------------------------------
D:------------------------------------------------
A:-3>------------0000-----------------------------
E:----3-11111111------1111------------------------
RIFF #3
G:------------------------------------------------
D:------------------------------------------------
A:-3>---------------------------------------------
E:----3333-1111-----------------------------------
RIFF #4
G:------------------------------------------------
D:------------------------------------------------
A:------3333------3333----------------------------
E:-1111------3333------1111-----------------------
RIFF #5
G:------------------------------------------------
D:------------------------------------------------
A:-----3-3------3-3-------------------------------
E:-1-1-----3-3------1111--------------------------
RIFF #6
G:------------------------------------------------
D:------------------------------------------------
A:-3333333333333333-------------------------------
E:------------------------------------------------
RIFF #7
G:------------------------------------------------
D:------------------------------------------------
A:-3>-------3-------------------------------------
E:----3--1----------------------------------------
*Order*
Riff 1 x 1
Riff 2 x 2
Riff 3 x 2
Riff 4 x 1
Riff 1 x 1
Riff 2 x 2
Riff 3 x 2
Riff 4 x 1
Riff 6 x 1
Riff 5 x 1
Riff 6 x 1
Riff 5 x 1
Riff 1 x 1
Riff 6 x 1
No Bass for a little bit
Riff 3 x 2
Riff 7 x 1