Blink 182 :

: Blink 182 - "Waggy"










[ne]FORMAT



MIDI







Waggy

Blink 182

: bel(caps),e-mail: marijuanadg@chat.RU

INTRO: (x2)

|---------------|
|---------------|
|----7-6--7-6---|
|----7-7--7-7---|
|-0-------------|
|---------------|



|------------------------------------------|
|------------------------------------------|
|------------------------------------------|
|------------------------------------------|
|---4---7---5---4---5---7-------5----------|
|---------------------------7-------7---7--|  (x2)


Intro Riff (x8)

|------------------------------------------|
|------------------------------------------|
|------------------------------------------|
|------------------------------------------|
|---4---7---5---4---5---7-------5----------|
|---------------------------7-------7---7--|  (x2)



|-------------|
|-------------|
|-------------|
|--P----P-----|
|-0-5--0-4----|
|-------------|



|------------------------------------------|
|---6---9---7---6---7---9-------7---7------|
|---------------------------6-----------6--|
|------------------------------------------|
|------------------------------------------|
|------------------------------------------|