Blink 182 :

: Blink 182 - "Story of a Lonely Guy "










[ne]FORMAT



MIDI







Story of a Lonely Guy

( "Take Off Your Pants and Jacket ")

Blink 182

: Lauren (Mebottledfizzywater@hotmail.com)

Intro w/ Vibrato 
e |--------------------------------------------------------------| 
b |-------101010-12121212121212121212----101010-121212-----------| 
g |---999----------------------------999---------------9999999---| x 2 
d |--------------------------------------------------------------| 
a |--------------------------------------------------------------| 
e |--------------------------------------------------------------| 

Verse (Palm Mute) 
e |---------------------------------------------------------| 
b |---------------------------------------------------------| 
g |-----------------------66666666--77777777----------------| 
d |---77777777--99999999--66666666--77777777----------------| 
a |---77777777--99999999--44444444--55555555----------------| 
e |---55555555--77777777------------------------------------| 

Pre-Chorus 
e |-----------------------------------------------------------------| 
b |-----------------------------------------------------------------| 
g |-----------------------------------------------------------------| 
d |-----7-------7-------7-------7------7------7-------7-------7-----| x2 
a |-4-4---4-4-4---4-5-5---5-5-5---5---------------7-7---7-7-7----7--| 
e |---------------------------------5-5--5-5-5--5-------------------| 

Chorus 
e |---------------------------------------------------------| 
b |---------------------------------------------------------| 
g |-------------99999999------------77777777----------------| 
d |---77777777--99999999--44444444--77777777----------------| 
a |---77777777--77777777--44444444--55555555----------------| 
e |---55555555------------22222222--------------------------| 

Bridge 
e |---------------------------------------------------| 
b |---------------------------------------------------| 
g |------------------------------------999999999999---| x 2 
d |-------7-------7-------7-------7----999999999999---| 
a |---4-4---4-4-4---4-5-5---5-5-5---5--777777777777---| 
e |---------------------------------------------------| 

There you have it, it's an easy but really kick-butt kinda song. 
if you have any corrections or just want to talk nonstop about blink 182, 
email me or talk to me online (AIM sn: bottledfizzzywtr) 

LYRICS 

VERSE 1 
Push it out, fake a smile, avert disaster, just in time. 
I need a drink, cuz' in awhile, worthless answers, from friends of mine. 
It's dumb to ask, cool to ignore, girls possess me but theyre never mine. 
I made my entrance, avoided hazards, check my engine, I fell behind. 

PRE-CHORUS 
Da da . . . Da da . . . Da da . . . Da da da . . . 
Da da . . . Da da . . . Da da . . . Da da da . . . 

CHORUS 
She makes me feel like it's raining outside. 
And when the stars come I'm all torn up inside. 
I'm always nervous on days like this, like the prom. 
I get too scared to move cause I'm a fucking boy. 

VERSE 2 
Remember when, I was in, the grocery store, now's my time. 
Lost the words, lost the nerve, lost the girl, left the line. 
I would wish, upon a star, but that star, it doesn't shine. 
So read my book, with the boring ending, a short story of a lonely guy. 

PRE-CHORUS 
Da da . . . Da da . . . Da da . . . Da da da . . . (I fell behind) 
Da da . . . Da da . . . Da da . . . Da da da . . . 

CHORUS 
She makes me feel like it's raining outside. 
And when the stars come I'm all torn up inside. 
I'm always nervous on days like this, like the prom. 
I get too scared to move cause I'm a fucking boy. 

BRIDGE 

CHORUS/OUTRO 
She makes me feel like it's raining outside. 
And when the stars come I'm all torn up inside. 
I'm always nervous on days like this, like the prom. 
I get too scared to move cause 
I'm still just a stupid, worthless, boy.