Blink-182:

: Blink-182 - "Stay Together For The Kids"










[ne]FORMAT



MIDI







Stay Together For The Kids

Blink-182

: Eddie Wheeler

[INTRO] - clean 
E|-----------------------------------------------------------| 
B|-----------------------------------------------------------| 
G|-----------------------------------------------------------| 
D|--0---7-0-4-0---0--7-0-4-0---0--4-0---5-0---2---4-5-4-2-0--| 
A|5---5----5----4---4---4----2---2----2-----0---0------------| 
E|-----------------------------------------------------------| 

[VERSE] - clean
------------------------------------------------------------------------------
-----3-----3-----3-----3-----3-----3-----3-----3------------------------------
-----2-----2-----2-----2-----2-----2-----2-----2------------------------------
-0-0---0-0---0-0---0-0--------------------------------------------------------
-------------------------4-4---4-4---4-4---4-4--------------------------------
------------------------------------------------------------------------------

-----------------------------0-----0------------------------------------------
-----3-----3-----3-----3-----3-----3-----2-----2------------------------------
-----2-----2-----2-----2-----------------2-----2------------------------------
------------------------------------------------------------------------------
-2-2---2-2---2-2---2-2---0-0---0-0---0-0---0-0--------------------------------
------------------------------------------------------------------------------

------------------------------------------------------------------------------
-----3-----3-----3-----3-----3-----3-----3-----3------------------------------
-----2-----2-----2-----2-----2-----2-----2-----2------------------------------
-0-0---0-0---0-0---0-0--------------------------------------------------------
-------------------------4-4---4-4---4-4---4-4--------------------------------
------------------------------------------------------------------------------

-----------------------------0-----0------------------------------------------
-----3-----3-----3-----3-----3-----3------------------------------------------
-----2-----2-----2-----2------------------2*----------------------------------
------------------------------------------2*----------------------------------
-2-2---2-2---2-2---2-2---0-0---0-0---0-0--0*----------------------------------
------------------------------------------------------------------------------

*distortion on                                                                              
[CHORUS] - distortion
------------------------------------------------------------------------------
------------------------------------------------------------------------------
------------------------------------------------------------------------------
-5-5-5-5-5-5-5-5-5-5-5-5---4-4-4-4-4-4-4-4-4-4-4------------------------------
-5-5-5-5-5-5-5-5-5-5-5-5---4-4-4-4-4-4-4-4-4-4-4------------------------------
-3-3-3-3-3-3-3-3-3-3-3-3-0-2-2-2-2-2-2-2-2-2-2-2------------------------------

[BRIDGE] - clean
-------------------------|----------------------------------------------------
-7---------------9---x3--|-------7--------------***************--x1-----------
-7-------7-------9-------|-------7------7-------9-9-9-9-9-9-9-9---------------
-7-------7-------9-------|-------7------7-------x-x-x-x-x-x-x-x---------------
---------5-------7-------|--------------5-------7-7-7-7-7-7-7-7---------------
-------------------------|----------------------------------------------------
*distortion