Blink-182:

: Blink-182 - "Please Take Me Home"










[ne]FORMAT



MIDI







Please Take Me Home

( "Take off your Pants and Jacket")

Blink-182

: Mikey Mikey D

              *****INTRO and VERSE****(clean)
     [g] E-----------------------------------
     [u] B-----------------------------------
     [i] G---8-8-8-8-------------------------
1rst [t] D---9-9-9-9----9-9-9-9--------------X2 (X6)
     [a] A---6-6-6-6----9-9-9-9--------------
     [r] E--------------7-7-7-7--------------
      +      (D?)       (B)

      +
     [g] E-------------------------------------------
     [u] B--------------(palm muted)-----------------
     [i] G--4-4-4-4---6-6-6-6------------------------
2nd  [t] D--4-4-4-4---6-6-6-6---6-6-6-6----2-2-2-2---X4
     [a] A--2-2-2-2---4-4-4-4---6-6-6-6----2-2-2-2---
     [r] E----------------------4-4-4-4----0-0-0-0---
             (B)     (C#)      (G#)      (E)

                  (verse 1)
       Oh no it happened again
       Shes cool, shes hot, shes my friend
       I'd drive for hours its so
       You leave me nowhere

                 (verse 2)
       Buy hope..Hope that it lasts
       Give in...Forget the past
       Be strong when things fall apart
       Honest....this breaks my heart

        (verse 3)
       Why did we have to go date?
       Its too easy to complicate
       Be strong when things fall apart
       Honest.....this breaks my heart




              *****BRIDGE******(distorted)
E-------------------------------|---------------------
B-------------------------------|---------------------
G---------4-4-------------------|---------------------
D--2-2----4-4----6-6----4-4-----|--2)))))))))))))4----
A--2-2----2-2----6-6----4-4-----|--2)))))))))))))4----
E--0-0-----------4-4----2-2-----|--0)))))))))))))2----
   (E)    (B)    (G#)   (B)       (E)           (F#)

                  (bridge)
              -------------------
              |She's unstoppable|
              |Unpredictable    |
              |Im so jaded      |
              |Calculated       |
              |Wrong            |
              -------------------



                   ****CHORUS*****(distorted)
                                                      
        E------------------------------------------    
        B-----------1-1-1-1------------------------    
        G--4-4-4-4--4-4-4-4------------------------    
        D--4-4-4-4--4-4-4-4--6-6-6-6----2-2-2-2----X2  
        A--2-2-2-2-----------6-6-6-6----2-2-2-2----    
        E--------------------4-4-4-4----0-0-0-0----    
           (B)       (A#)      (G#)       (E)          
                                                       
                      CHORUS   
              Please take....me home                
              Too late.......its gone               
              I bet..........you're sad             
              This is the best time we've ever had  
   




               *****BUILD UP*********(clean)
E--------------------------------------------------
B--------------------------------------------------
G-4------------------------------------------------
D-4-----(4-4---6-6---8-8---9-9)--------------------
A-2-----(2-2---4-4---6-6---7-7)--------------------
E--------------------------------------------------
      
E--------------------------------------------------
B-----------(palm muted)---------------------------
G---4-4-4-4---6-6-6-6---8-8-8-8---9-9-9-9----------
D---4-4-4-4---6-6-6-6---8-8-8-8---9-9-9-9----------
A---2-2-2-2---4-4-4-4---6-6-6-6---7-7-7-7----------
E--------------------------------------------------
      (B)      (C#)      (D#)       (E)


                    +++++++++++++



                     INSTRUMENTAL*(distorted)
           E-----------------------------------
           B-----------------------------------
           G--444--333--888---666--4---666-----
      [g]  D----------------------------------- X2
      [u]  A-----------------------------------
      [i]  E-----------------------------------
 1rst [t]
      [a]  E-----------------------------------
      [r]  B--88888888888888---444444444444----
           G-----------------------------------
       +   D----------------------------------- X2
           A-----------------------------------
       +   E-----------------------------------

       +

      [g]  E------------------------------------------
      [u]  B------------------------------------------
      [i]  G--4-4-4-4--3-3-3-3------------------------
 2nd  [t]  D--4-4-4-4--3-3-3-3--6-6-6-6----2-2-2-2----X4
      [a]  A--2-2-2-2--1-1-1-1--6-6-6-6----2-2-2-2----
      [r]  E--------------------4-4-4-4----0-0-0-0----
                (B)     (A#)     (G#)        (E)



        *****Ending Chorus*****(distorted)
E--------------------------------------------------
B--------------------------------------------------
G------4-4-4-4--3-3-3-3----------------------------
D-(4)--4-4-4-4--3-3-3-3--6-6-6-6----2-2-2-2--------X4
A-(4)--2-2-2-2--1-1-1-1--6-6-6-6----2-2-2-2--------
E-(2)--------------------4-4-4-4----0-0-0-0--------
  (F#)   (B)     (A#)      (G#)       (E)

**************************Fade Out********************************