Blink 182:

: Blink 182 - "Obvious"










[ne]FORMAT



MIDI







Obvious

( "Blink 182")

Blink 182


intro x6                                   let ring
e----------------------------------------------------------------------------
b----------------------------------------------------------------------------
g----------------------------------------------------------------------------
d-4-4---7--77-----7---77---7------------------7/-----------------------------
a-4-4---7--77-----7---77---7-------then-------4/-----------------------------
e-4-4---4/-55-----4/--55---5-------------------------------------------------

verse let each chord ring                 then thisx2 
e-----------------------------------I----------------------------------------
b-----------------------------------I----------------------------------------
g-9--11---12----------------------- I-7/-------------------------------------
d-x--x----x------------------------ I-x/--- 777--777--777--5-5-5--5-5-5------
a-7--9---10------------------------ I-5/--- xxx--xxx--xxx--x-x-x--x-x-x------
e-----------------------------------I------ 555--444--777--0-0-2--3-3-3------


INtro x4

verse
then let ring
e----
b----
g------
d-7-/----
a-4/---
e---

INterlude
e-----------------------------------------------------------------------------
b-----------------------------------------------------------------------------
g-999--555---777---101010-9--101010-999--555--777--101010--9--101010----------
d-xxx--xxx---xxx---x-x-x--x--x-x-x--xxx--xxx--xxx---x-x-x--x---x-x-x----------
a-777--333---555---8-8-8--7--8-8-8--777--333--555---8-8-8--7---8-8-8----------
e-----------------------------------------------------------------------------

Interlude part2 not sure about this part...but its close

e-----------------------------------------------------------------------------
b-----------------------------------------------------------------------------
g-----------------------------------------------------------------------------
d-999-555-777-1010-99--1010---------------------------------------------------
a-999-555-777-1010-99--1010---------------------------------------------------
e-777-333-555--8-8-77---8-8---------------------------------------------------


verse at the end
e-----------------------------------------------------------------------------
b-----------------------------------------------------------------------------
g---77777777777777777777----777777777777777777-----777777777777777777---------
d---xxxxxxxxxxxxxxxxxxxx--- xxxxxxxxxxxxxxxxxx-----xxxxxxxxxxxxxxxxxx---------
a---55555555555555555555----444444444444444444-----555555555555555555---------
e-----------------------------------------------------------------------------



end on
e----
b----
g----
d-7---
a-4---
e----



Its a really awesome song in their album but its kinda hard to tell what they're playing 
with all the other instruments.email me at somerealdumbkid@aol.com CHris