Blink 182:

: Blink 182 - "Mutt"










[ne]FORMAT



MIDI







Mutt

( "Enema of the State")

Blink 182

: Bobby Pinto ( bpinto4@hotmail.com )

 Riff 1
E|--------------------------------------------------------------------------|
B|-------2-----------2-----------2-----------2----------2------------2------|
G|----2-----2-----2-----2-----2-----2-----2-----2-----2-----2-----2-----2---|
D|--2-----------2-----------2-----------2-----------0-----------0-----------|
A|--------------------------------------------------------------------------|
E|--------------------------------------------------------------------------|
E|-------------------------|
B|------2-----------2------|
G|---2-----2-----2-----2---|
D|-0-----------0-----------|
A|-------------------------|
E|-------------------------| End of Riff 1
 Riff 2
E|------------------------------------------------------|
B|-------2-----------2-----------2-----------2----------|
G|----2-----2-----2-----2-----2-----2-----2-----2-------|
D|--2-----------2-----------0-----------2---------------|
A|------------------------------------------------------|
E|------------------------------------------------------| End of Riff 2
 Rythm Figure 1
E|------------------------------------------------------------|
B|------------------------------------------------------------|
G|-----2-----2-----2h4-----2h4-----6-----6-----2h4----2h4-----|
D|------------------------------------------------------------|
A|-0-0---0-0---0-0-----0-0-----0-0---0-0---0-0-----0-0--------|
E|------------------------------------------------------------|
pm....   ...   ...     ...     ...   ...   ...     ...

Play Rythm Figure 1 over this:
He pauses shaving and he tells himself that he is the bomb
She has her curlers set, her credit cards are paying the funds
A5                           F#5
He's not that old, I've been told
         E5
A strong sexual goal
A5
She goes out every day
F#5      E5             D5
She goes every way...oh yeah!
               E5(vii)        
And they don't even care at all
A C#5 looks like:
E|----|
B|----|
G|----|
D|-7--|
A|-4--|
E|----|
A5, B5, D5, C#5(1)  
A5, B5, D5, C#5(1)
A5                       B5    D5 
She's open waiting for more
 C#5(1)    A5                      B5     D5                                
And I know he's only looking to score
C#5(1)   A5                                
And it's way too unhealthy
B5            D5   C#5(1)                               
Often they've typically
A5                             B5       D5    C#5(1)                       
Been starved for attention before

Play Riff 1
Play Rythm Figure 1 over this part of Verse 2:

She smokes a dozen and he doesn't seem to notice the smell
He took the seat off his own bike because of the way that it felt
A5                       F#5
He wants to bone, this I know
       E5
She is ready to blow
A5                
They go out every night
F#5           E5               D5
His pants are super tight...oh yeah!
               E5(vii)         
And they don't even care at all
A5, B5, D5, C#5(1)  
A5, B5, D5, C#5(1)
A5                       B5    D5 
She's open waiting for more
 C#5(1)    A5                      B5     D5                                
And I know he's only looking to score
C#5(1)   A5                                
And it's way too unhealthy
B5            D5   C#5(1)                               
Often they've typically
A5                             B5       D5    C#5(1)                       
Been starved for attention before
Rythm Figure 2:
E|------------------------------------
B|------------------------------------
G|------------------------------------
D|-2--2-----4--4-----7--7---7--7------
A|-0--0-----2--2-----5--5---4--4------
E|------------------------------------
p.m..............................
Play Riff 2
A5                       B5    D5 
She's open waiting for more
 C#5(1)    A5                      B5     D5                                
And I know he's only looking to score
C#5(1)   A5                                
And it's way too unhealthy
B5            D5   C#5(1)                               
Often they've typically
A5                             B5       D5    C#5(1)                       
Been starved for attention before
 Rythm Figure 3:
E|---------------------------------------------------|
B|---------------------------------------------------|
G|-2-------4------7--7----2-------4------7--7---2----|
D|-2-------4------7--7----2-------4------7--7---2----|
A|-0-------2------5--4----0-------2------5--4---0----|
E|---------------------------------------------------|