Blink 182:

: Blink 182 - "Man Overboard"










[ne]FORMAT



MIDI







Man Overboard

( "Mark, Tom & Travis Show")

Blink 182

: Ziggy (zigs_domain@yahoo.com)

 Intro Riff 1: (on bass, play 2 frets higher on G & D strings.)
e-----------------------------------------------------------------|(5x)
B-----------------------------------------------------------------|
G-----------------------------------------------------------------|
D-----------------------------------------------------------------|
A-----5---3---2-------5---3---2-------5---3---2-2-3---2---3---2---|
E-3-3---3---3---3-3-3---3---3---3-3-3---3---3---3---3---3---3---3-|

e-----------------------------------------------------------------|(1x)
B-----------------------------------------------------------------|
G-----------------------------------------------------------------|
D-----------------------------------------------------------------|
A-----5---3---2-------5---3---2-------5---3---2---3---------------|
E-3-3---3---3---3-3-3---3---3---3-3-3---3---3---3-----------------|
 Intro Riff 2: (start on 3rd repeat of Riff 1)
e-G---------------E---------------C-------------------------------|
(3x)
B-----------------------------------------------------------------|
G---------------------------------5-5-5-5-5-5-5-5-5-5-5-5-5-5-5-5-|
D-5-5-5-5-5-5-5-5-2-2-2-2-2-2-2-2-5-5-5-5-5-5-5-5-5-5-5-5-5-5-5-5-|
A-5-5-5-5-5-5-5-5-2-2-2-2-2-2-2-2-3-3-3-3-3-3-3-3-3-3-3-3-3-3-3-3-|
E-3-3-3-3-3-3-3-3-0-0-0-0-0-0-0-0---------------------------------|

e-G---------------E---------------C---------------D---------------|
(1x)
B-----------------------------------------------------------------|
G---------------------------------5-5-5-5-5-5-5-5-7---------------|
D-5-5-5-5-5-5-5-5-2-2-2-2-2-2-2-2-5-5-5-5-5-5-5-5-7---------------|
A-5-5-5-5-5-5-5-5-2-2-2-2-2-2-2-2-3-3-3-3-3-3-3-3-5---------------|
E-3-3-3-3-3-3-3-3-0-0-0-0-0-0-0-0---------------------------------|


 Bridge:                      (4x)                              (4x)
e---------------------------------|---------------------------------|
B---------------------------------|---------------------------------|
G---------------------------------|-0-0-----------------------------|
D---------------------------------|---------0-------0-0-2-0---------|
A-----2-3-2-------0-2-3-2---0-----|-----2-3-------------------3-----|
E-3-3-----------------------------|---------------------------------|

 Verse: (palm mute)
e-G-------------------------------E---------------C---------------|
(2x)
B-----------------------------------------------------------------|
G-----------------------------------------------------------------|
D-------------------------------------------------5-5-5-5-5-5-5-5-|
A-5-5-5-5-5-5-5-5-5-5-5-5-5-5-5-5-2-2-2-2-2-2-2-2-3-3-3-3-3-3-3-3-|
E-3-3-3-3-3-3-3-3-3-3-3-3-3-3-3-3-0-0-0-0-0-0-0-0-----------------|

 Chorus:
e-G---------------D---------------E---------------C---------------|
(2x)
B-----------------------------------------------------------------|
G-----------------7-7-7-7-7-7-7-7-----------------5-5-5-5-5-5-5-5-|
D-5-5-5-5-5-5-5-5-7-7-7-7-7-7-7-7-2-2-2-2-2-2-2-2-5-5-5-5-5-5-5-5-|
A-5-5-5-5-5-5-5-5-5-5-5-5-5-5-5-5-2-2-2-2-2-2-2-2-3-3-3-3-3-3-3-3-|
E-3-3-3-3-3-3-3-3-----------------0-0-0-0-0-0-0-0-----------------|

 Ending:
e-G-------------------------------C-------------------------------
B-----------------------------------------------------------------
G---------------------------------5-5-5-5-5-5-5-5-5-5-5-5-5-5-5-5-
D-5-5-5-5-5-5-5-5-5-5-5-5-5-5-5-5-5-5-5-5-5-5-5-5-5-5-5-5-5-5-5-5-
A-5-5-5-5-5-5-5-5-5-5-5-5-5-5-5-5-3-3-3-3-3-3-3-3-3-3-3-3-3-3-3-3-
E-3-3-3-3-3-3-3-3-3-3-3-3-3-3-3-3---------------------------------

e-G---------------A---------------C-------------------------------
B-----------------------------------------------------------------
G-----------------2-2-2-2-2-2-2-2-5-5-5-5-5-5-5-5-5-5-5-5-5-5-5-5-
D-5-5-5-5-5-5-5-5-2-2-2-2-2-2-2-2-5-5-5-5-5-5-5-5-5-5-5-5-5-5-5-5-
A-5-5-5-5-5-5-5-5-0-0-0-0-0-0-0-0-3-3-3-3-3-3-3-3-3-3-3-3-3-3-3-3-
E-3-3-3-3-3-3-3-3-------------------------------------------------

e-G-------------------------------C-------------------------------
B-----------------------------------------------------------------
G---------------------------------5-5-5-5-5-5-5-5-5-5-5-5-5-5-5-5-
D-5-5-5-5-5-5-5-5-5-5-5-5-5-5-5-5-5-5-5-5-5-5-5-5-5-5-5-5-5-5-5-5-
A-5-5-5-5-5-5-5-5-5-5-5-5-5-5-5-5-3-3-3-3-3-3-3-3-3-3-3-3-3-3-3-3-
E-3-3-3-3-3-3-3-3-3-3-3-3-3-3-3-3---------------------------------

e-G---------------A---------------C---------------D---------------|
B-----------------------------------------------------------------|
G-----------------2-2-2-2-2-2-2-2-5-5-5-5-5-5-5-5-7-7-7-7-7-7-7-7-|
D-5-5-5-5-5-5-5-5-2-2-2-2-2-2-2-2-5-5-5-5-5-5-5-5-7-7-7-7-7-7-7-7-|
A-5-5-5-5-5-5-5-5-0-0-0-0-0-0-0-0-3-3-3-3-3-3-3-3-5-5-5-5-5-5-5-5-|
E-3-3-3-3-3-3-3-3-------------------------------------------------|
End on G.