Blink 182:

: Blink 182 - "I Miss You"










[ne]FORMAT



MIDI







I Miss You

( "Blink 182")

Blink 182

: Ryan Samanka

Single guitar
Tuning: standard

/ slide up
\ slide down
~ let ring
0 open string




  Introduction: (strumming pattern shown)
e|----------------------------------------------------------------|
B|----------------------------------------------------------------|<-- open string optional
G|-4-4-4/8--8-8~---4-4-4/8--8-8~---4-4-4/8--8-8~---4-4-4/8--8-8\4~|
D|-4-4-4/x--x-x~---4-4-4/x--x-x~---4-4-4/x--x-x~---4-4-4/x--x-x\4~|
A|-2-2-2/6--6-6~---2-2-2/6--6-6~---2-2-2/6--6-6~---2-2-2/6--6-6\2~|
E|-x-x-x/7--7-7~---x-x-x/7--7-7~---x-x-x/7--7-7~---x-x-x/7--7-7\x~|


  Verse 1,2: (same as intro.)
e|----------------------------------------------------------------|
B|----------------------------------------------------------------|<-- open string optional
G|-4-4-4/8--8-8~---4-4-4/8--8-8~---4-4-4/8--8-8~---4-4-4/8--8-8\4~|
D|-4-4-4/x--x-x~---4-4-4/x--x-x~---4-4-4/x--x-x~---4-4-4/x--x-x\4~|
A|-2-2-2/6--6-6~---2-2-2/6--6-6~---2-2-2/6--6-6~---2-2-2/6--6-6\2~|
E|-x-x-x/7--7-7~---x-x-x/7--7-7~---x-x-x/7--7-7~---x-x-x/7--7-7\x~|
  1.hello there, the angel from my nightmare....
  2.where are you? and I'm so sorry....


  Chorus: (strumming - basic pattern shown but not exact)
e|-------------------------------------------------------------------------------------------------|
B|-------------------------------------------------------------------------------------------------|<-- open string optinal
G|-4-4-444--4-4-444--8-8-888--11-11-111111--13-13-131313--15-15-151515--16-16-161616--16-16-161616-|
D|-4-4-444--4-4-444--8-8-888--11-11-111111--13-13-131313--15-15-151515--16-16-161616--16-16-161616-|
A|-2-2-222--4-4-444--6-6-666---9--9--9-9-9--11-11-111111--13-13-131313--14-14-141414--14-14-141414-|
E|-x-x-xxx--x-x-xxx--x-x-xxx---x--x--x-x-x---x--x--x-x-x---x--x--x-x-x---x--x--x-x-x---x--x--x-x-x-|
  don't waste your time on me....           ******************************************************   ***(or...)

                                           -4-4-444--6-6-666--7-7-777--7-7-777-|
                                           -0-0-000--0-0-000--0-0-000--0-0-000-|
                                           -1-1-111--3-3-333--4-4-444--4-4-444-|
                                           ------------------------------------|
                                           ------------------------------------|
                                           ------------------------------------|
                                            **********************************
                                    ....the voice inside my head.


  Verse 3: (strumming pattern shown)
e|----------------------------------------------------------------|
B|----------------------------------------------------------------|<-- open string optional
G|-4-4-4/8--8-8~---4-4-4/8--8-8\4~---4-4-4/8--8-8~---4-4-4/8--8-8~|
D|-4-4-4/x--x-x~---4-4-4/x--x-x\4~---4-4-4/x--x-x~---4-4-4/x--x-x~|
A|-2-2-2/6--6-6~---2-2-2/6--6-6\2~---2-2-2/6--6-6~---2-2-2/6--6-6~|
E|-x-x-x/7--7-7~---x-x-x/7--7-7\x~---x-x-x/7--7-7~---x-x-x/7--7-7~|


 

 Song order:
Introduction - x's 3
Verse 1 - x's 3
Chorus (no vocals) - x's 2
Verse 2 - x's 4
Chorus - x's 2
Verse 3 - x's 2
Chorus - x's 4
Chorus (no vocals) - x's 4 (fade out)





Multiple guitar parts
---------------------------------------------------------
Blink 182 - Blink 182 - Track 03 - "I Miss You"
Transcribed by: Ryan Samanka

Tuning: standard

/ slide up
\ slide down
~ let ring
0 open string




  Introduction: (strumming pattern shown)
e|----------------------------------------------------------------|
B|----------------------------------------------------------------|<-- open string optional
G|-4-4-4/8--8-8~---4-4-4/8--8-8~---4-4-4/8--8-8~---4-4-4/8--8-8\4~|
D|-4-4-4/x--x-x~---4-4-4/x--x-x~---4-4-4/x--x-x~---4-4-4/x--x-x\4~|
A|-2-2-2/6--6-6~---2-2-2/6--6-6~---2-2-2/6--6-6~---2-2-2/6--6-6\2~|
E|-x-x-x/7--7-7~---x-x-x/7--7-7~---x-x-x/7--7-7~---x-x-x/7--7-7\x~|
  
  Introduction - SECOND GUITAR:
e|--------------------------------------------------------------|
B|-------------------------------------------------------------~|<-- open string optional
G|-4-4-4-4--4-4~---4-4-4-4--4-4~---4-4-4-4--4-4~---4-4-4-4--4-4~|
D|-x-x-x-x--x-x~---x-x-x-x--x-x~---x-x-x-x--x-x~---x-x-x-x--x-x~|
A|-2-2-2-2--2-2~---2-2-2-2--2-2~---2-2-2-2--2-2~---2-2-2-2--2-2~|
E|-x-x-x-x--x-x~---x-x-x-x--x-x~---x-x-x-x--x-x~---x-x-x-x--x-x~|


  

  Verse 1,2: (same as intro.)
e|----------------------------------------------------------------|
B|----------------------------------------------------------------|<-- open string optional
G|-4-4-4/8--8-8~---4-4-4/8--8-8~---4-4-4/8--8-8~---4-4-4/8--8-8\4~|
D|-4-4-4/x--x-x~---4-4-4/x--x-x~---4-4-4/x--x-x~---4-4-4/x--x-x\4~|
A|-2-2-2/6--6-6~---2-2-2/6--6-6~---2-2-2/6--6-6~---2-2-2/6--6-6\2~|
E|-x-x-x/7--7-7~---x-x-x/7--7-7~---x-x-x/7--7-7~---x-x-x/7--7-7\x~|
  1.hello there, the angel from my nightmare....
  2.where are you? and I'm so sorry....
 
  Verse 1,2 - SECOND GUITAR:
e|--------------------------------------------------------------|
B|--------------------------------------------------------------|<-- open string optional
G|-4-4-4-4--4-4~---4-4-4-4--4-4~---4-4-4-4--4-4~---4-4-4-4--4-4~|
D|-x-x-x-x--x-x~---x-x-x-x--x-x~---x-x-x-x--x-x~---x-x-x-x--x-x~|
A|-2-2-2-2--2-2~---2-2-2-2--2-2~---2-2-2-2--2-2~---2-2-2-2--2-2~|
E|-x-x-x-x--x-x~---x-x-x-x--x-x~---x-x-x-x--x-x~---x-x-x-x--x-x~|




  Chorus: (strumming - basic pattern shown but not exact)
e|-------------------------------------------------------------------------------------------------|
B|-------------------------------------------------------------------------------------------------|<-- open string optinal
G|-4-4-444--4-4-444--8-8-888--11-11-111111--13-13-131313--15-15-151515--16-16-161616--16-16-161616-|
D|-4-4-444--4-4-444--8-8-888--11-11-111111--13-13-131313--15-15-151515--16-16-161616--16-16-161616-|
A|-2-2-222--4-4-444--6-6-666---9--9--9-9-9--11-11-111111--13-13-131313--14-14-141414--14-14-141414-|
E|-x-x-xxx--x-x-xxx--x-x-xxx---x--x--x-x-x---x--x--x-x-x---x--x--x-x-x---x--x--x-x-x---x--x--x-x-x-|
  don't waste your time on me....           ******************************************************   ***(or...)

                                           -4-4-444--6-6-666--7-7-777--7-7-777-|
                                           -0-0-000--0-0-000--0-0-000--0-0-000-|
                                           -1-1-111--3-3-333--4-4-444--4-4-444-|
                                           ------------------------------------|
                                           ------------------------------------|
                                           ------------------------------------|
                                            **********************************
                                    ....the voice inside my head.

  Chorus - SECOND GUITAR: (strumming - basic patterin shown but not exact)
e|------------------------------------------------------------------------|
B|------------------------------------------------------------------------|<--open string optional
G|-4-4-444--4-4-444--4-4-444--4-4-444--4-4-444--4-4-444--4-4-444--4-4-444-|
D|-x-x-xxx--x-x-xxx--x-x-xxx--x-x-xxx--x-x-xxx--x-x-xxx--x-x-xxx--x-x-xxx-|
A|-2-2-222--2-2-222--2-2-222--2-2-222--2-2-222--2-2-222--2-2-222--2-2-222-|
E|-x-x-xxx--x-x-xxx--x-x-xxx--x-x-xxx--x-x-xxx--x-x-xxx--x-x-xxx--x-x-xxx-|

 
  Chorus - THIRD GUITAR: (strumming - basic pattern shown but not exact) 
e|---------------------------------------------------------------------------|
B|---------------------------------------------------------------------------|<-- open string optional
G|-4-4-444--4-4-444--8-8-888--1111111111--9-9-999--9-9-999--9-9-999--9-9-999-|
D|-4-4-444--4-4-444--8-8-888--1111111111--9-9-999--9-9-999--9-9-999--9-9-999-|
A|-2-2-222--4-4-444--6-6-666---9-9-9-9-9--7-7-777--7-7-777--7-7-777--7-7-777-|
E|-x-x-xxx--x-x-xxx--x-x-xxx---x-x-x-x-x--x-x-xxx--x-x-xxx--x-x-xxx--x-x-xxx-|



  Verse 3: (strumming pattern shown)
e|----------------------------------------------------------------|
B|----------------------------------------------------------------|<-- open string optional
G|-4-4-4/8--8-8~---4-4-4/8--8-8\4~---4-4-4/8--8-8~---4-4-4/8--8-8~|
D|-4-4-4/x--x-x~---4-4-4/x--x-x\4~---4-4-4/x--x-x~---4-4-4/x--x-x~|
A|-2-2-2/6--6-6~---2-2-2/6--6-6\2~---2-2-2/6--6-6~---2-2-2/6--6-6~|
E|-x-x-x/7--7-7~---x-x-x/7--7-7\x~---x-x-x/7--7-7~---x-x-x/7--7-7~|


 

 Song order:
Introduction - x's 3
Verse 1 - x's 3
Chorus (no vocals) - x's 2
Verse 2 - x's 4
Chorus - x's 2
Verse 3 - x's 2
Chorus - x's 4
Chorus (no vocals) - x's 4 (fade out)