Blink 182:

: Blink 182 - "I'm Sorry"










[ne]FORMAT



MIDI







I'm Sorry

( "Dude Ranch")

Blink 182

: PATRICK THOMAS E-MAIL: PATHOMAS@VIDEOTRON.CA

CHORDS USED

Intro: (x4)

Let It Ring
|--------------------------------------------|
|--------------------------------------------|
|-------------------------------6-----6------|
|----7--9--7--6-----------0--------7-----7---|
|----------------7--7--7-----7---------------|
|-5------------------------------------------|


D5
A5
 Don't bide your time

E5
 'Cause it is almost over

D5
 And I know you're down

D5
 And I'll see you around

A5
 And I know it hurts

E5
 But you're just getting older

D5
 And I know you'll win
 E5
A5
 You'll do it once again


Riff #1 (x4)

|--------------------------------|
|--------------------------------|
|--------------------------------|
|--------------------------------|
|-----7-------7-------7-------7--|
|--4-----4-4-----5-5-----5-5-----|

A5-B5

Riff #2

A5-D5-B5-D5-E5 (x2)

Play Fill #1 over Riff #2

|----------------|
|----------------|
|-------------6--|
|--7-7--7--9-----|
|----------------|
|----------------|

 A5
E5
 Just yesterday
 D5 E5
A5
 It always seemed like such a dream
 E5
D5
 We're unstoppable, indestructable
 E5
A5
 Nothing happens to our machine

E5 D5
 And there's no harm
 E5
A5
 At least nothing we can see
 E5
D5
 As for you, not so true

E5
 He couldn't choose where his road would lead


Riff #2 (x4) with Fill #1

 A5 E5
 What a loss
 D5 E5
A5
 You just lost all your sleep

E5 D5
 And we've always thought

E5
 That this could never happen, you see

 A5 E5
 That it's so hard
 D5 E5
A5
 You gotta get up on your feet

E5
D5
 'Cause the only way, I gotta say

E5
 Is to move on through the week

D5
A5
 Don't bide your time

E5
 'Cause it is almost over

D5
 And I know you're down

D5
 And I'll see you around

A5
 And I know it hurts

E5
 But you're just getting older

D5
 And I know you'll win
 E5
A5
 You'll do it once again


Intro Riff (x4)


Play the next riff over these words

A5-E5-F#5-D5

Sorry [x16]
(Sorry...) Happened to you [x4]


D5
A5
 Don't bide your time

E5
 'Cause it is almost over

D5
 And I know you're down

D5
 And I'll see you around

A5
 And I know it hurts

E5
 But you're just getting older

D5
 And I know you'll win
 E5
A5
 You'll do it once again

Intro Riff till it fades...