Blink 182:

: Blink 182 - "Going Away To College"










[ne]FORMAT



MIDI







Going Away To College

Blink 182

: bel(caps)and guy from usa

Intro(Repeat 2X)
                   
e-------------------------------------------------| 
B--4-4-4-4--2-2-2-2--4-4-4-4--2-2-2-2-------------|
G--4-4-4-4--4-4-4-4--4-4-4-4--4-4-4-4-------------|
D-------------------------------------------------|
A-------------------------------------------------|
E-------------------------------------------------|

e-------------------------------------------------| 
B--4-4-4-4--2-2-2-2--4-4-4-4--2-2-2-2-------------|
G--4-4-4-4--4-4-4-4--4-4-4-4--4-4-4-4-------------|
D--2 2 2 2--2-2-2-2--2-2-2-2--2-2-2-2-------------|
A-------------------------------------------------|
E-------------------------------------------------|

Interlude For Guitar 1 (Repeat 2X)

e-------------------------------------------------| 
B------------4-----------4-----------4-----2-----2|
G------4-----------4-----------4------------------|
D--------------------------2-2---2-2---4-4---4-4--|
A--2-2---2-2---2-2---2-2--------------------------|
E-------------------------------------------------|

Interlude For Guitar 2 (Repeat 2X)
  B5  C#5  E5
e---------------| 
B---------------|
G--4---6---9----|
D--4---6---9----|
A--2---4---7----|
E---------------|

e---------------------| 
B---------------------|
G--4---6---9----------|
D--4---6---9---6---4--|
A--2---4---7---6---4--|
E--------------4---2--|