Blink 182:

: Blink 182 - "First Date"










[ne]FORMAT



MIDI







First Date

Blink 182


Standard Tuning: EADGBE

Riff A
E-0-----------------------0-------------------------------
B---1---1-----3-1---1-------1---1-----3-1---0-0-1---------
G-----0---0-------0---0-------0---0-------0---------------
D---------------------------------------------------------
A---------------------------------------------------------
E---------------------------------------------------------

Verse(Palm Muted)
E---------------------------------------------------------
B---------------------------------------------------------
G---5-5---------------------------------------------------
D-5-------------------------------------------------------
A---------------------------------------------------------
E---------------------------------------------------------

Riff B
E---------------------------------------------------------
B---------------------------------------------------------
G-555-555-222222------------------------------------------
D-555-555-222222-33-55------------------------------------
A-333-222-000000-33-55------------------------------------
E----------------11-33------------------------------------

Riff C
E---------------------------------------------------------
B---------------------------------------------------------
G-5555-5555-2222------------------------------------------
D-5555-5555-2222-33-55------------------------------------
A-3333-2222-0000-33-55------------------------------------
E----------------11-33------------------------------------

Interlude Pt.1(Palm Mute)
E---------------------------------------------------------
B---------------------------------------------------------
G---------------------------------------------------------
D-55555555------------------------------------------------
A-33333333-22222222-33333333-55555555---------------------
E----------00000000-11111111-33333333---------------------

Interlude Pt.2
E---------------------------------------------------------
B---------------------------------------------------------
G-5555555-9999/55--10-10-10-10/55-77777777/5--------------
D-xxxxxxx-xxxx/xx--x--x--x--x-/xx-xxxxxxxx/x--------------
A-3333333-7777/33--8--8--8--8-/33-55555555/3--------------
E---------------------------------------------------------

Order:
Riff A x 2 
Verse  x 16
Riff B x 2
Riff C x 2
Riff A x 2
Verse  x 16
Riff B x 2
Riff C x 2
Interlude Pt.1 x 2
Interlude Pt.2 x 4
Riff B x 2
Riff C x 2
Riff A x 2