Blink 182:

: Blink 182 - "Feeling This"










[ne]FORMAT



MIDI







Feeling This

Blink 182

: Joe

verse riff
|-----------------------------|
|-----------------------------|
|-11-11-11-/-9---9-9-9-13-13--|
|-11-11-11-/-9-0-9-9-9-13-13--|
|--9--9--9-/-7-0-7-7-7-11-11--|
|--------------0--------------|

chorus
|---
|---
|-9-
|-9-
|-7-
|---

post chorus
|------------------------|
|------------------------|
|-9----11----13----14----|
|-9-x6-11-x6-13-x7-14-x8-|
|-7-----9----11----12----|
|------------------------|

verse 2
|-----------------------------|
|-----------------------------|
|-11-11-11-/-9---9-9-9-13-13--|
|-11-11-11-/-9-0-9-9-9-13-13--|
|--9--9--9-/-7-0-7-7-7-11-11--|
|--------------0--------------|

chorus
|---
|---
|-9-
|-9-
|-7-
|---

verse 3 bass + drums

bridge
mark half-rapping
then
|------------------------|
|------------------------|
|-9----------------------| 
|-9-x8-9-x8-11----7------|
|-7----9----11-x8-7-x8---|
|------7-----9----5------|

end choruses
|------------------------|
|------------------------|
|-9----------------------| 
|-9-x8-9-x8-11----7------|
|-7----9----11-x8-7-x8---|
|------7-----9----5------|