Blink 182:

: Blink 182 - "Family Reunion "










[ne]FORMAT



MIDI







Family Reunion

Blink 182

: Danny Matteson, guitarist in Plink 037

(Standard Tuning)
INTRO(let ring)
E|-------------------
B|-------------------
G|-2-2-2-------------
D|-2-2-2-------------
A|-0-0-0-------------
E|-------------------

Riff A(palm mute)
E|---------------------------------------------------
B|---------------------------------------------------
G|-22222222-44444444-66666666-77777777---------------
D|-22222222-44444444-66666666-77777777---------------
A|-00000000-22222222-44444444-55555555---------------
E|---------------------------------------------------

Riff B
E|-----------------------------------
B|-----------------------------------
G|-----2-------2------2---------2----
D|-------2-------2------2--0-0----2--
A|-0-0-----2-2-----4-4---------------
E|-----------------------------------

Riff C
E|---------------------------------------------------
B|---------------------------------------------------
G|-22222222-44444444-66666666-77777777---------------
D|-22222222-44444444-66666666-77777777---------------
A|-00000000-22222222-44444444-55555555---------------
E|---------------------------------------------------