Blink 182:

: Blink 182 - "Don't Leave Me"










[ne]FORMAT



MIDI







Don't Leave Me

( "Enema of the State")

Blink 182

: Bobby Pinto ( bpinto4@hotmail.com )

Rythm Figure 1
E|---------------------------------------------------------------|
B|---------------------------------------------------------------|
G|-xxxx--2--2-2--xxxx--7--7-7---xxxx--4--4-4--7-7-7-7--9-9-9-9---|
D|-xxxx--2--2-2--xxxx--7--7-7---xxxx--4--4-4--7-7-7-7--9-9-9-9---|
A|-xxxx--0--0-0--xxxx--5--5-5---xxxx--2--2-2--5-5-5-5--7-7-7-7---|
E|---------------------------------------------------------------|

E|---------------|
B|---------------|
G|--2------------|
D|--2------------|The guitar only plays this during the verses.
A|--0-let ring---|
E|---------------|


E|--------------|
B|--------------|
G|--------------|           
D|---7--7---7---|     
A|-0--0---0-----|       
E|--------------|
Play the chorus 1x, then end on an A5.