Blink 182:

: Blink 182 - "Dancing With Myself"










[ne]FORMAT



MIDI







Dancing With Myself

( "Buddha Demo")

Blink 182


Intro/Verse
e|-----------------------|
B|-----------------------|
G|-5-5--5--5--4--5--7--5-|
D|-----------------------|
A|-----------------------|
E|-----------------------|

Chorus       * = palm mute
e|-----------------------------------------------------------------------|
B|-----------------------------------------------------------------------|
G|-*5--5-5-5-5-5-5-------------------------------------------------------|
D|--5--5-5-5-5-5-5---*3--3-3-3-3-3-3---*7--7-7-7-7-7-7---*3--3-3-3-3-3-3-|
A|--3--3-3-3-3-3-3----3--3-3-3-3-3-3----7--7-7-7-7-7-7----3--3-3-3-3-3-3-|
E|--------------------1--1-1-1-1-1-1----5--5-5-5-5-5-5----1--1-1-1-1-1-1-|

Solo
e|----------------------------------------|
B|----------------------------------------|
G|-0-0-0-0--5-5-5-5--7-7-7-7--12-12-12-12-|
D|----------------------------------------|
A|----------------------------------------|
E|----------------------------------------|