Blind Guardian:

: Blind Guardian - "The Wizard"










[ne]FORMAT



MIDI







The Wizard

( "Forgotten Tales")

Blind Guardian

: Uriah Heep
This tab is made for Blind Guardians version,
how it works for the original I don't know.

Chords used:
    D   Dsus4   Dm    C     G     G5    A5
E|--2--|--3--|--0--|--0--|--3--|-----|-----|
B|--3--|--3--|--3--|--1--|--0--|-----|-----|
G|--2--|--2--|--2--|--0--|--0--|-----|-----|
D|--0--|--0--|--0--|--2--|--0--|--5--|--7--|
A|--0--|--0--|-----|--3--|--2--|--5--|--7--|
E|-----|-----|-----|-----|--3--|--3--|--5--|

intro/verse:
--D--------Dsus4-D-Dm-D---C---G-------D-| x2
--C------------G------------C-- -----G--|
--D--------Dsus4-D-Dm-D---C---G-------D||

verse 1:
D           Ds4 D  Dm D   C   G       D
He was the wizard of a thousand kings
And I chanced to meet him one night wandering
C              G      D          G
He told me tales and he drank my wine
D           Ds4 D  Dm D   C   G       D
Me and my magic man kinda feeling fine

Verse 2:
He had a cloak of gold and eyes of fire
And as he spoke I felt a deep desire
To free the world of its fear and pain
And help the people to feel free again

chorus:
  G5  A5  G5  A5  G5  A5   G5
D|-5-7-7---5-7-7---5-7-7--5-5-5-5-5|
A|-5-7-7---5-7-7---5-7-7--5-5-5-5-5| x4
E|-3-5-5---3-5-5---3-5-5--3-3-3-3-3|

chorus:
Why don't we listen to... the voices in our hearts
Cause then I know we'll find... we're not so far apart
Everybody's got to be happy...everyone should sing
For we know the joy of life... the peace that love can bring

Verse 3:
So spoke the Wizard in his mountain home
The vision of his wisdom means we'll never be alone
And now I will dream of my magic night
And the million silver stars that guide me with their light