Blind Guardian:

: Blind Guardian - "The Bard`s Song (In The Forest)"










[ne]FORMAT



MIDI







The Bard`s Song (In The Forest)

Blind Guardian


      Tune half step lower (E=Eb, A=Ab etc)
                         
                                    ---------  ---------
                                   |1,3 time   |2 time
           Am        G       Em    | Am      x4| Am
       ||--0-------|-3-----|-0-----|-0--------||-0-------
       ||--1-3-1-0-|-0-1-0-|-0-----|-1-3-1-0--||-1-------
       ||*-2-------|-0-----|-0-2-0-|-2-------*||-2-------
       ||*-2-------|-0-----|-2-----|-2-------*||-2-------
       ||--0-------|-2-----|-2-----|-0--------||-0-------
       ||----------|-3-----|-0-----|----------||---------
         Am           G        Em              Am
       |-0---------|--3------|-0-------------|-0--|
       |-1--3----1-|--0------|-0----1-----3--|-1--|
       |-2---------|--0------|-0-------------|-2--|
       |-2---------|--0------|-2-------------|-2--|
       |-0---------|--2------|-2-------------|-0--|
       |-----------|--3------|-0-------------|----|
        Now you all know  the bards and their songs
      Am  Asus4  Am   G  Gsus4 G  Em   Emsus4  Em   Am    Asus4   Am 
When hours have gone by           I'll close   my    eyes
           Asus4 Am G Gsus4   G  Em  Emsus4  Em Am  Asus4  Am
In a World  far  away        we may   meet   again
        Asus4 Am  G   Gsus4     G     Em  Emsus4  Em Am  
But now hear  my song      about the dawn of     the night
       C     G  Am      G    C   G  Am  G 
Let's sing the  bard's song
   Dm Am       Dm       Am  Dm      Am
Tomorrow will take us away far from home
 Dm         F      G       Dm
No one will ever know our names
         F           G      Dm
But the bards' song will remain
   Dm Am        Dm       Am      Dm       Am 
Tomorrow will  take it away the fear of today
Dm          F        G            Em
It will be gone due to our magic songs
Solo: (what I could figure out)
||-----8p7p5---5--------------------------------||
||*----------8---5-5-5h6-3-5p3\1---------------*||
||-------------------------------2--/9---9/11---||
||----------------------------------------------||
||*--------------------------------------------*||
||----------------------------------------------||


|-------0-------------0---------------0---3-0-0h1p0---1-5-3-|
|---0-1---0-------------3p1p0---0-1-3---3-----------3-------|
|-2---------0---0-2-0---------2-----------------------------|
|-------------3---------------------------------------------|
|-----------------------------------------------------------|
|-----------------------------------------------------------|
There's only one song left in my mind
Tales of  a  brave man who lived far from hear
Now the bard songs are over and it's time to leave
No one should ask you for the name of the one
     C      G  Am G     
Who tells the story
Tomorrow will take us away far from home
None will ever know our names
But the bard songs will remain
Tomorrow all will be known
And you're not alone
So don't be afraid in the dark and cold
            F          G      Am
'Cause the bard songs will remain
     F    G      Am 
They all will remain
C        G         Am
In my thoughts and in my dreams
        C      G      Am
They're always in my mind
       C        G         Am
These songs of hobbits , dwarves and men
    C            G        Am
And elves come close your eyes
          C   G   Em
You can see them too...