Blind Guardian:

: Blind Guardian - "A Past And Future Secret"










[ne]FORMAT



MIDI







A Past And Future Secret

Blind Guardian



         (Intro:)
          F#m              E  F#m        C#m F#m x2
       ||----9-10-9-7-9----7-|-------------------||
       ||--7------------10---|-7-9-10-9-7-5---7--||
       ||*-------------------|--------------6---*||
       ||*-------------------|------------------*||
       ||--------------------|-------------------||
       ||--------------------|-------------------||


        (Bridge:)
        F#m            E  F#m     C#m F#m
       |-2-------2-----4-|-2-------9-7-5-4-|
       |---2---2---2-----|---2---2---------|
       |-----2-------2---|-----2-----------|
       |-----------------|-----------------|
       |-----------------|-----------------|
       |-----------------|-----------------|


   (Rh.Fig.1)
   F#m            E     A    E
  |-2-------------0-----5--|-4h5p4-0h2h4-|
  |------------------------|-------------|
  |------------------------|-------------|
  |------------------------|-------------|
  |------------------------|-------------|
  |------------------------|-------------|
    Oh I haven't been  here   for    a


  (Rh.Fig.2)
    F#m            E   F#m
  |--2-------2-----4--|-2-------2--------|
  |----2---2---2------|---2---2---2---2--|
  |------2-------2----|-----2-------2----|
  |-------------------|------------------|
  |-------------------|------------------|
  |-------------------|------------------|
   while


(Rh.Fig.1)
In blindness and decay the circle's been


   (Chorus:)
    D       Bm         E
  |-5-------2-------|--4----4h5p4---4--|
  |-7-------3-------|--5--5-------5----|
  |-7-------4-------|--4---------------|
  |-0-------0-------|--6---------------|
  |-----------------|------------------|
  |-----------------|------------------|
  Closed              Now...


(Chorus twice)
My song of the end , my song of the end I've seen it


(Intro)
All


F#m                        E
Listen crowd I'll tell you everything
  F#m                  C#m        F#m
Though I have to say I don't know much
F#m                              E
Talking 'bout a past and future secret
F#m                      C#m    F#m
Most called Him once and future King
F#m                            E
Far back in the past I saw His ending
F#m                       C#m     F#m
Long before he started I knew His name
F#m                                 E
He's the one who took the sword out of the stone
F#m          C#m              D   Bm E
It's how that ancient tale begun      (I hear it in the cold winds)


(Chorus four times)
My song of the end , my song of the end ,
My song of the end (I had seen it in my dreams)
My song of the end I can't stop the darkening clouds


  (Rh.Fig.3)
   F#m                E       F#m          C#m  F#m
  |---10-9-7-9-7-9----7-9-10-|---10-9-7-9-7-9----7-|
  |-7--------------10--------|-7--------------10---|
  |--------------------------|---------------------|
  |--------------------------|---------------------|
  |--------------------------|---------------------|
  |--------------------------|---------------------|


   F#m                E       F#m           C#m
  |---10-9-7-9-7-9----7-9-10-|---10-9-7------------|
  |-7--------------10--------|-7--------10-7-5-----|
  |--------------------------|-----------------6---|
  |--------------------------|---------------------|
  |--------------------------|---------------------|
  |--------------------------|---------------------|


(Rh.Fig.2)


(Rh.Fig.1)
I feel cold when I cry out for the bark
 F#m              E   F#m   C#m    F#m
(take Him back to Avalon)


(Same as previous)
Dwell on for a new age so long sleep well my friend
(take Him back to Avalon)


(Rh.Fig.1)                                (Chorus seven times)
I will wait and guard the future King's crown
My song of the end , my song of the end
My song of the end , my song of the end (It was nice but now it's gone)
My song of the end (It was fixed the whole time)
                             (Rh.Fig.3)
My song of the end , I saw it all