Black Sabbath:

: Black Sabbath - "Into the Void"










[ne]FORMAT



MIDI







Into the Void

Black Sabbath



from Master of Reality
Trascribed by Dan Newcombe  (STDN@VM.MARIST.EDU)
(Freindly corrections are accepted.  Flames are a waste and useless)

Intro Riff
      riff a  (play 4 times)
----:------------------------------------------------
----:------------------------------------------------
----:------------------------------------------------
----:-------------------~----------------------------
----:---------0-4-0-3-0-2--0--------------------7----
15\-:-0-2-3-4-----------------4-3/4-3/4-3/4-4-5---5--

------------------------------------------------
------------------------------------------------
------------------------------------------------
-------------------~----------------------------
---------0-4-0-3-0-2--0--------------------7----
-0-2-3-4-----------------4-3/4-3/4-3/4-4-5---5--

------------------------------------------------
------------------------------------------------
------------------------------------------------
-------------------~----------------------------
---------0-4-0-3-0-2--0--------------------7----
-0-2-3-4-----------------4-3/4-3/4-3/4-4-5---5--

------------------------------------------------
------------------------------------------------
------------------------------------------------
-------------------~----------------------------
---------0-4-0-3-0-2--0--------------------7----
-0-2-3-4-----------------4-3/4-3/4-3/4-4-5---5--

(These are chords, after each B there is a little riff)
C#      B     C#     B     C#      B    A     B G#
=  ==== = ==  = ==== = ==  = ====  = == ===== = =

------------------------------------------------
------------------------------------------------
------------------------------------------------
-------------------~----------------------------
---------0-4-0-3-0-2--0--------------------7----
-0-2-3-4-----------------4-3/4-3/4-3/4-4-5---5--

------------------------------------------------
------------------------------------------------
------------------------------------------------
-------------------~----------------------------
---------0-4-0-3-0-2--0--------------------7----
-0-2-3-4-----------------4-3/4-3/4-3/4-4-5---5--


(On the main riff, the B and F# are just the single note with
 a vibrato or bend)

Main Riff
C#                      B C#                      F#
==== = = = = = ==== = = ~ ==== = = = = = ==== = = /

C#                      B C#                      F#
==== = = = = = ==== = = ~ ==== = = = = = ==== = = /

C#                      B C#                      F#
==== = = = = = ==== = = ~ ==== = = = = = ==== = = /

C#                      B C#                      F#
==== = = = = = ==== = = ~ ==== = = = = = ==== = = /

(Vocals come in)
C#                      B C#                      F#
==== = = = = = ==== = = ~ ==== = = = = = ==== = = /

C#                      B C#                      F#
==== = = = = = ==== = = ~ ==== = = = = = ==== = = /

C#                      B C#                      F#
==== = = = = = ==== = = ~ ==== = = = = = ==== = = /

C#                      B C#                      F#
==== = = = = = ==== = = ~ ==== = = = = = ==== = = /

Riff B
---------------------------------------------:-------------------
---------------6666-6-6-6-6-6666-6-6-6-6-----:-------------------
---------------6666-6-6-6-6-6666-6-6-6-6-----:-------------------
---------------6666-6-6-6-6-6666-6-6-6-6-~---:-------------------
--4-3-2-0------4444-4-4-4-4-4444-4-4-4-4-2---:-4-3-2-0-----------
----------4-3--------------------------------:---------4-3-------

C#                      B C#                      F#
==== = = = = = ==== = = ~ ==== = = = = = ==== = = /

C#                      B C#                      F#
==== = = = = = ==== = = ~ ==== = = = = = ==== = = /

(Vocals come back in)
C#                      B C#                      F#
==== = = = = = ==== = = ~ ==== = = = = = ==== = = /

C#                      B C#                      F#
==== = = = = = ==== = = ~ ==== = = = = = ==== = = /

C#                      B C#                      F#
==== = = = = = ==== = = ~ ==== = = = = = ==== = = /

C#                      B C#                      F#
==== = = = = = ==== = = ~ ==== = = = = = ==== = = /

---------------------------------------------:-------------------
---------------6666-6-6-6-6-6666-6-6-6-6-----:-------------------
---------------6666-6-6-6-6-6666-6-6-6-6-----:-------------------
---------------6666-6-6-6-6-6666-6-6-6-6-~---:-----------5-------
--4-3-2-0------4444-4-4-4-4-4444-4-4-4-4-2---:-4-3-2-0---5-------
----------4-3--------------------------------:---------4-3-------

Riff c
-------------:---------------------------------------------------
-------------:---------------------------------------------------
-------------:---------------------------------------------------
-------------:---------------------------------------------------
-------------:---------------------------------------------------
-0-2-3-4-3-2-:-0-2-3-4-3-2--0-2-3-4-3-2--0-2-3-4-3-2-------------

(Vocals start)
-------------:---------------------------------------------------
-------------:---------------------------------------------------
-------------:---------------------------------------------------
-------------:---------------------------------------------------
-------------:---------------------------------------------------
-0-2-3-4-3-2-:-0-2-3-4-3-2--0-2-3-4-3-2--0-2-3-4-3-2-------------

-------------:---------------------------------------------------
-------------:---------------------------------------------------
-------------:---------------------------------------------------
-------------:---------------------------------------------------
-------------:---------------------------------------------------
-0-2-3-4-3-2-:-0-2-3-4-3-2--0-2-3-4-3-2--0-2-3-4-3-2-------------

              riff d
-------------:-------------------------------------
-------------:-------------------------------------
-------------:-------------------------------------
-------------:-------------------------------------
-4-3-2-0-----:--------------4-3-2-0----------------
---------4-3-:-0-2-3-4-3-2----------4-3------------

C#                      B C#                      F#
==== = = = = = ==== = = ~ ==== = = = = = ==== = = /

C#                      B C#                      F#
==== = = = = = ==== = = ~ ==== = = = = = ==== = = /

C#                      B C#                      F#
==== = = = = = ==== = = ~ ==== = = = = = ==== = = /

C#                      B C#                      F#
==== = = = = = ==== = = ~ ==== = = = = = ==== = = /

(Vocals come back in)
C#                      B C#                      F#
==== = = = = = ==== = = ~ ==== = = = = = ==== = = /

C#                      B C#                      F#
==== = = = = = ==== = = ~ ==== = = = = = ==== = = /

C#                      B C#                      F#
==== = = = = = ==== = = ~ ==== = = = = = ==== = = /

C#                      B C#                      F#
==== = = = = = ==== = = ~ ==== = = = = = ==== = = /

---------------------------------------------:-------------------
---------------6666-6-6-6-6-6666-6-6-6-6-----:-------------------
---------------6666-6-6-6-6-6666-6-6-6-6-----:-------------------
---------------6666-6-6-6-6-6666-6-6-6-6-~---:-------------------
--4-3-2-0------4444-4-4-4-4-4444-4-4-4-4-2---:-4-3-2-0-----------
----------4-3--------------------------------:---------4-3-------

C#                      B C#                      F#
==== = = = = = ==== = = ~ ==== = = = = = ==== = = /

C#                      B C#                      F#
==== = = = = = ==== = = ~ ==== = = = = = ==== = = /

(The bass play's the main riff through the solo)
C#                      B C#                      F#
==== = = = = = ==== = = ~ ==== = = = = = ==== = = /

C#                      B C#                      F#
==== = = = = = ==== = = ~ ==== = = = = = ==== = = /

C#                      B C#                      F#
==== = = = = = ==== = = ~ ==== = = = = = ==== = = /

The riff that comes after the solo is:

Riff e
-------------------:-------------------
-------------------:-------------------
-------------------:-------------------
---------------2---:--------------2----
-4-3-2-----2-3---4-:--4-3-2---2-3---4--
-------4-----------:--------4----------

-------------------:-------------------
-------------------:-------------------
-------------------:-------------------
---------------2---:--------------2----
-4-3-2-----2-3---4-:--4-3-2---2-3---4--
-------4-----------:--------4----------

C#
= ==  = ==  = ==  = ==  = ==  = ==  = == = ==

(During second solo, bass plays riff e)
-------------------:-------------------
-------------------:-------------------
-------------------:-------------------
---------------2---:--------------2----
-4-3-2-----2-3---4-:--4-3-2---2-3---4--
-------4-----------:--------4----------

-------------------:-------------------
-------------------:-------------------
-------------------:-------------------
---------------2---:--------------2----
-4-3-2-----2-3---4-:--4-3-2---2-3---4--
-------4-----------:--------4----------

-------------------:-------------------
-------------------:-------------------
-------------------:-------------------
---------------2---:--------------2----
-4-3-2-----2-3---4-:--4-3-2---2-3---4--
-------4-----------:--------4----------
(solo ends)

-------------------:-------------------
-------------------:-------------------
-------------------:-------------------
---------------2---:--------------2----
-4-3-2-----2-3---4-:--4-3-2---2-3---4--
-------4-----------:--------4----------

-------------------:-------------------
-------------------:----------------6--
-------------------:----------------6--
---------------2---:--------------2-6--
-4-3-2-----2-3---4-:--4-3-2---2-3---4--
-------4-----------:--------4----------