:

: - "Black Sabbath (Iommi/Butler/Ward/Osbourne)"










[ne]FORMAT



MIDI







Black Sabbath (Iommi/Butler/Ward/Osbourne)



From: bnorris@nyx.cs.du.edu (Brett Norris)

Riff A :

E------------------------|-------------|--
B------------------------|-------------|--
G------------------------|-------------|--       * 2
D--0--5------------------|---0--5------|--
A-------4H5P4H5P4H5P4H5--|--------4----|--
E--3---------------------|---3---------|--

Riff B:

E-----------|--
B-----------|--
G-----------|--    * 2
D----5------|--
A------4----|--
E--3--------|--

Verse 1 (w Riff B):

What is this that stands before me?
Figure in black that points at me.
Turn around quick and start to run.
Find out I'm the chosen one.

Riff A *2
Riff B *2

Verse 2 (w Riff B):

Big black shape with eyes of fire,
Telling people their desire,
Satan's sitting there, he's smiling,
Watches those flames get higher and higer.

Riff C:

E-------------------------|--
B-------------------------|--
G-------------------------|--  * 4
D-----------0-1---0-----0-|--
A-------1-3-----3---1-3---|--
E-3-3-3-------------------|--

Verse 3 (w Riff C):

Is this the end my friend?
Satan's come around the bend.
People running 'cause they're scared.
People better go and beware.