Amorphis:

: Amorphis - "To Fathers Cabin"










[ne]FORMAT



MIDI







To Fathers Cabin

Amorphis


Tune to C# 

   lead1
 
E-|---------------------------------------------------------------------------|
B-|---------------------------------------------------------------------------|
G-|--------------------------------4----------7-------------------------------|
D-|--7---7-7h8p7--5---5-5h7p5--2------2---5------5----------------------------|
A-|---------------------------------------------------------------------------|
E-|---------------------------------------------------------------------------|
   riff1 

E-|---------------------------------------------------------------------------|
B-|---------------------------------------------------------------------------|
G-|---------------------------------------------------------------------------|
D-|--7------7-----7---5------5-----5---2------2-----2---5------5-----5--------|
A-|--7--7-7-7-7-7-7-7-5--5-5-5-5-5-5-5-2--2-2-2-2-2-2-2-5--5-5-5-5-5-5--------|
E-|--5--5-5-5-5-5-5-5-3--3-3-3-3-3-3-3-0--0-0-0-0-0-0-0-3--3-3-3-3-3-3--------|
     P.M---   ---   -    ---   ---   -    ---   ---   -    ---   --- 
    
   lead2 
E-|---------------------------------------------------------------------------|
B-|---------------------------------------------------------------------------|
G-|---------------------------------------------------------------------~~~~--|
D-|---3---5---6---8---3---5---6---8---3---5---6---8---3---5---6---8---10------|
A-|---------------------------------------------------------------------------|
E-|---------------------------------------------------------------------------|

   riff2 

E-|---------------------------------------------------------------------------|
B-|---------------------------------------------------------------------------|
G-|---------------------------------------------------------------------------|
D-|---------------------------------------------------------------------------|
A-|---3---5---6---8---3---5---6---8---3---5---6---8---3---5---6---8---10------|
E-|---1---3---4---6---1---3---4---6---1---3---4---6---1---3---4---6---8-------|

   riff3 

E-|---------------------------------------------------------------------------|
B-|---------------------------------------------------------------------------|
G-|---------------------------------------------------------------------------|
D-|--3h5-5---3h5-5---3h5~~~--3h5-5---3h5-5---3h5~~~---------------------------|
A-|---------------------------------------------------------------------------|
E-|---------------------------------------------------------------------------|

   same riff with gtr.2 
E-|---------------------------------------------------------------------------|
B-|---------------------------------------------------------------------------|
G-|---------------------------------------------------------------------------|
D-|---------------------------------------------------------------------------|
A-|---------------------------------------------------------------------------|
E-|--6h8-8---6h8-8---6h8~~---6h8-8---6h8-8---6h8~~~---------------------------|

   lead3 

E-|---------------------------------------------------------------------------|
B-|---------------------------------------------------------------------------|
G-|---9---7---5---4--2--4-5---9---7---5---4--2--4-5---------------------------|
D-|---------------------------------------------------------------------------|
A-|---------------------------------------------------------------------------|
E-|---------------------------------------------------------------------------|


   riff4 
         slight muting........................ 
E-|---------------------------------------------------------------------------|
B-|---------------------------------------------------------------------------|
G-|-------9--------7--------5-------4-------4---------------------------------|
D-|---------------------------------------------------------------------------|
A-|--7-7-----7--5----5-5-3-----3-3-----2-2------------------------------------|
E-|---------------------------------------------------------------------------|

   riff5
 

E-|---------------------------------------------------------------------------|
B-|---------------------------------------------------------------------------|
G-|----------------------------4~~--------------------------------------------|
D-|--------5~~--------4h5-2-2------------5~~--------4h5p4-2-------------------|
A-|--2--2-------2--2---------------2--2-------2--2-----------5--4-------------|
E-|--0--0-------0--0---------------0--0-------0--0----------------------------|


   end it all to this
 
E-|---------------------------------------------------------------------------|
B-|---------------------------------------------------------------------------|
G-|---------------------------------------------------------------------------|
D-|--4h5p4--2---------4h5p4--2--------4h5p4--2--------------------------------|
A-|------------5--4-------------5--4------------5--4-zzzz-2~~~~---------------|
E-|---------------------------------------------------------------------------|