Amorphis:

: Amorphis - "Magic and Mayhem"










[ne]FORMAT



MIDI







Magic and Mayhem

Amorphis


 INTRO
|--------------------------------------------------------------------- 
|--------------------------------------------------------------------- 
|-----------------------------------7h9------------------------------- 
|---------------------------9-9-7-9-----7-7--------------------------- 
|--7-7--9-10-10-9h10-9-7-7-------------------------------------------- 
|---------------------------------------------------------------------     
            repeat 2x
 
|--------------------------------------------------------------------- 
:--------------------------------------------------------------------- 
|--8--7-7-7-5-----------------------5--------------------------------- 
|-------------8-8-8-7-5-5-7-8-8-7-7---8-7-5---5-(5)------------------- 
|-------------------------------------------8------------------------- 
|---------------------------------------------------------------------     
           repeat 2x
(END OF INTRO) 

|------------------------------(---------)---------------------------- 
|------------------------------(---------)---------------------------- 
|------------------------------(---------)---------------------------- 
|-------------------4--3-3-3-3-(----9----)---------------------------- 
|--2--2-2-5--2---4--2--1-1-1-1-(---------)---------------------------- 
|--0--0-0-3--4-0-2-------------(00-------)----------------------------        
      pm                       ( additi- )
   :-------------------------: ( onal    )
     repeat several times
       (listen CD)
 
|--------------------------------------------------------------------- 
|--------------------------------------------------------------------- 
|--------------------------------------------------------------------- 
|--------------------------------------------------------------------- 
|-5--2-2---------5--2-2----5------------------------------------------ 
|-3--0-0-000000--3--0-0-00-3------------------------------------------       
 
  :------------------------:
    repeat several times
    (the synth comes in)
 
|--------------------------------------------------------------------- 
|--------------------------------------------------------------------- 
|--------------------------------------------------------------------- 
|----------------1---------------------------------------------------- 
|--2--2-2-2--2-3---3-2--2-2-2-3-2------------------------------------- 
|---------------------------------------------------------------------     
     repeat MANY TIMES

 
|--------------------------------------------------------------------- 
|--------------------------------------------------------------------- 
|--------------------------------------------------------------------- 
|--------------------------------7--4-4---------7--4-4----7----------- 
|-5--2-2---------5--2-2----5-----5--2-2-222222--5--2-2-22-5----------- 
|-3--0-0-000000--3--0-0-00-3------------------------------------------       
  :------------------------:     :------------------------:
       repeat                            repeat